-----------------------------------------------------------------------
GUTTERMOUTH - WHAT YOU LIKE ABOUT ME
-----------------------------------------------------------------------
Band: Guttermouth
Album: Covered With Ants
Song: What You Like About Me
Tabbed By: PuNk BaSsIsT
E-mail: [email protected]
Tuning: Standard
There's no bass in the intro.
Verse/Chorus
G|--------------------------------------|
D|--------------------------------------|
A|------5555-------88-77----------------|
E|-7777------5555-----------------------|

First Little Solo Thing
G|--------------------------------------|
D|--------------------------------------|
A|------555--------8877-----------------|
E|-7777-----5-555-----------------------|



Second Little Solo Thing
G|--------------------------------------|
D|--------------------------------------|
A|-------5-----57-8877------------------|
E|-7-757---7-7--------------------------|


G|--------------------------------------|
D|--------------------------------------|
A|-------5--------870-------------------|
E|-7-757---7-7--------------------------|

Ending
G|--------------------------------------|
D|--------------------------------------|
A|------5555-------88-77----------------|
E|-7777------3333-----------------------|
That's how I play it. It sounds right, but judge for yourself.
Sorry I didn't have time to do the order but just listen to the CD, you should
be able to figure out the order and timing.Please rate. Any comments, corrections or questions,
e-mail me. [email protected]




Ваше мнение



Капча