guttermouth
walk of shame
tabbed by daniel182

this song is real good...and fun to play alog to..please rate!

intro
|------------------------------| |----------|
|------------------------------| |----------|
|-88-7-5-3333--88-7-5-10101010-|x2|-88-7-5-3-|x1
|------------------------------| |----------|

verse
|-------------------------------------|
|-------------------------------------|
|-3333-----3333-----3333--------------|x2
|------1111----3333-----1111-33333333-|

break
|------------------------------|
|------------------------------|
|-88-7-5-3333--88-7-5-10101010-|x2
|------------------------------|

pre chorus
|------------------------------------|
|------------------------------------|
|---------333------------------------|x2
|-555-1111---3333--555-1111-33333333-|

chorus
|----------------------------------------|
|--------------------------------5-3-2-0-|
|-3333-----3333-----3333-----------------|x2
|------1111----3333-----1111-3333--------|

break
|------------------------------|
|------------------------------|
|-88-7-5-3333--88-7-5-10101010-|x2
|------------------------------|

pre chorus
|------------------------------------|
|------------------------------------|
|---------333------------------------|x2
|-555-1111---3333--555-1111-33333333-|

chorus
|----------------------------------------|
|--------------------------------5-3-2-0-|
|-3333-----3333-----3333-----------------|x2
|------1111----3333-----1111-3333--------|

behind solo
|----------------------------------------| |---------------------|
|--------------------------------5-3-2-0-| |---------------------|
|-3333-----3333-----3333-----------------|x1|-3333-5555-7777-8888-|x2
|------1111----3333-----1111-3333--------| |---------------------|

pre chorus
|------------------------------------|
|------------------------------------|
|---------333------------------------|x2
|-555-1111---3333--555-1111-33333333-|

chorus
|----------------------------------------|
|--------------------------------5-3-2-0-|
|-3333-----3333-----3333-----------------|x2
|------1111----3333-----1111-3333--------|

outro
|------------------------------| |----------|
|------------------------------| |----------|
|-88-7-5-3333--88-7-5-10101010-|x4|-88-7-5-3-|
|------------------------------| |----------|

thats it! please rate this tab! thanx!




Ваше мнение



Капча