Song: Ude your mind
Band: Guttermouth
Album: Teri Yakimoto
tabbed by: Carlos Pino

intro x15
G:---------------------------------------------------------------
D:---------------------------------------------------------------
A:--5--------5-5-----------------------------------------------
E:------6--------------------------------------------------------

verse x4
G:---------------------------------------------------------------
D:---------------------------------------------------------------
A:--5-5----5-5----5-5----5-5-------------------------------
E:--------6------6-------6-------6-6--8-8-------------------

chorus
G:---------------------------------------------------------------
D:---------------------------------------------------------------
A:--5-5--------------------5-5--------------------5-5-------
E:--------6-6--5-5--3-3-------6-6--5-5--3-3-------6-6--5-5--3-3--5-5

verse




Ваше мнение



Капча