BAND:GUTTERMOUTH
SONG: THE 7 T'S
TABBED BY: BEN MEYER [email protected]

INTRO:
G:-------------------------
D:-5-5-5-5-5-5-5-3---------
A:------------------5-3----
E:-----------------------5-

VERSE:
G:-------------------------------------------
D:-------------------------------------------
A:-------------3-5-6-5-3-------------5-5-----
E:-5-5-5-5-5-5------------3-3-3-3-3------5-0-

CHORUS (FRISBEE PLAYING HITCHHIKERS....):
G:--------------------------------------
D:--------------------------------------
A:-3-3-3-3-3-5-5-5-5-5------------------
E:----------------------5-5-5-5-5-5-5-5-




Ваше мнение



Капча