GutterMouth
Song: Secure Horizon
Album: Punk-O-Rama 5
Tabbed by: BassD
x=mute
>=play a couple of time
Intro
G|-------------------------------------------------|
D|-------------------------------------------------|
A|-----5-7-7-----4-5-5-----5-7-7-----4-5-5---------|
E|-7-x-------5-5-------7-x-------5-5---------------|
G|----------------------------------------------|
D|---------------------------------7------------|
A|-----5-7-7-----4-5-5-----5-7-7-7--------------|
E|-7-x-------5-5-------7-x----------------------|
(no bass then)
G|-------------------------------------------|
D|-7h9---9-9-7-------------------------------|
A|-------------9-7-5-------------------------|
E|--------------------7----------------------|
Verse1
G|--------------------------------------------|
D|--------------------------------------------|
A|-----5-7---4-5-----5-7---4-5----------------|
E|-7-x-----5-----7-x-----5--------------------|
G|-----------------------------------------------|
D|-----------------9-9-7-99-7--------------------|
A|-----5-7---4-5--------------9-7-5--------------|
E|-7-x-----5------------------------7------------|
Chorus
G|--------------------------------------------|
D|--------------------------------------------|
A|-----5-7-7-----4-5-5-----5-7-7-----4-5-5----|
E|-7-x-------5-5-------7-x-------5-5----------|
G|----------------------------------------------|
D|----------------------------------------------|
A|-----5-7-7-----4-5-5-----5-7-7-----4-5-5------|
E|-7-x-------5-5-------7-x-------5-5------------|
Verse2
G|(part with no guitar)-------------------------------------|
D|----------------------------------------------------------|
A|-----5-7-7-----4-5-5-----5-7-7-----4-555------------------|
E|-7-x-------5-5-------7-x-------5-5------------------------|
G|------------------------------------------------------|
D|------------------------------------------------------|
A|-----5-7-7-----4-5-5-----5-7-7-----4-5-5--------------|
E|-7-x-------5-5-------7-x-------5-5--------------------|
G|------------------------------7-9-11-9-7-------------|
D|----------------------9-9-7-9------------------------|
A|-----5-7-7-----4-5-5---------------------------------|
E|-7-x-------5-5---------------------------------------|
(chorus)
Part with voice in background
G|-------------|
D|-9>----------|
A|-------------|
E|-------------|
not sure if or (try them and take the one you think is best)
G|-------------------------|----67>-7-8>----67>-7-8>--------|
D|-9>----------9>----------|-9>----------9>-----------------|
A|----45>-5-7>----45>-5-7>-|--------------------------------|
E|-------------------------|--------------------------------|
G|-----------------------------------|
D|-----------------------------------|
A|-2>-45>-7>--2>-45>-7>--------------|
E|-----------------------------------|
G|---------------------------------|
D|---------------------------------|
A|-2>-45>-7>--2>-45>-7>------------|
E|---------------------------------|
G|-------------------------------------------------|
D|-------------------------------------------------|
A|-----3-5-5-----2-3-3-----3-5-5-----2-3-3---------|
E|-5-x-------3-3-------5-x-------3-3---------------|
G|-------------------------------------------------|
D|-------------------------------------------------|
A|-----3-5-5-----2-3-3-----3-5-5-----2-3-3---------|
E|-5-x-------3-3-------5-x-------3-3---------------|
(chorus x3 after play end)
End with:
G|-------------------------------------------|
D|-------------------------------------------|
A|-----5-7-7-7-------------------------------|
E|-7-x---------5-----------------------------|
Email-me at [email protected] for comment,question...
===============================================================================




Ваше мнение



Капча