Song: Room for improvement
Band: Guttermouth
Album: Teri Yakimoto
tabbed by: Carlos Pino

verse
G:---------------------------------------------------------------
D:---------------------------------------------------------------
A:---------4-4-4--5-5-5--7-7-7-----------------------------
E:-5-5-5-------------------------------------------------------

chorus
G:---------------------------------¦------------------------------
D:---------------------------------¦------------------------------
A:------7-7-7--5-5--5-5-5-5-¦------4-4-5-4---------------
E:-5-5---------------------------¦-5-5------------5------------

outro
G:---------------------------------------------------------------
D:---------------------------------------------------------------
A:------4-4--5-5-5--------------------------------------------
E:-5-5---------------5-----------------------------------------




Ваше мнение



Капча