GutterMouth
Song: Old Glory
Album: The Album Formely Know as the Full length Lp
Tabbed by: BassD

>=Play several time
ring=Let it ring
/=Go down
=Go up
Intro/Verse 1
G|(intro)---|(Verse 1)-----------------------------------------------|
D|--7>3----|--------------------------------------------------------|
A|----------|--0-0-3-0-3-2-0-00-----3-2-0----------------------------|
E|----------|-------------------3-3----------------------------------|

Chorus
G|-------------------------------------------------------------------|
D|-------------------------------------------------------------------|
A|--00-0------33-3-00--00-0------33-3-00--00--00-0-------------------|
E|-------33-3---------------33-3-------------------------------------|

Verse 2
G|----------|--------------------------------------------------------|
D|--3/7>3--|--------------------------------------------------------|
A|----------|--0-0-3-0-3-2-0-00-----3-2-0----------------------------|
E|----------|-------------------3-3----------------------------------|

American song
G|--------------7ring--7/11-9-7--------------------------------------|
D|--4/7-4---4-7-----------------4-6-7ring----------------------------|
A|--------5----------------------------------------------------------|
E|-------------------------------------------------------------------|

(Listen to song for timing)
Play in order:Intro x1
Verse1 x2
Chorus x1
Verse 2 x2
Chorus x1
American song x1
Verse 1 x2
Chorus x1

For any comments,questions...contact me, E-mail:
[email protected]

[email protected]==============




Ваше мнение



Капча