Artist: Guttermouth
Song: Looking Good is All That Matters
Album: Covered with Ants
Tabbed by: Luke Rounda
One of Guttermouth's apparently very unappreciated songs. I haven't seen
a tab for it anywhere, and it's not one that many people talk about, so,
here we are. This is my first tab; please don't injure me.
Crank it up! Screaming punk distortion throughout.
- play the harmonic on fret 'x'
h - hammer-on
p - pull-off
x - mute string
~ - let ring
PM - palm mute
Standard Tuning E A D G B E
intro/main riff
e|-----------|---------------------------------------|
B|-----------|---------------------------------------|
G|-----------|-----6-h7p6---6-h7p6-------------------| Play 6x for intro,
D|-----------|---7--------7----------6-7----4-5p4----| 4x for interlude
A|-----------|---------------------7------5----------|
E|-~~~~~~-|---------------------------------------|
Basically, hit the 7th fret harmonic and let it ring for a few bars,
then punch in with the song's powerhouse main riff, which is mostly
shown here. This should give you a pretty good idea of how it goes. It
took me a few tries to get the picking rhythm right, but once you get
it going, WHOO!
verse
e|-----------------------------------------|
B|-----------------------------------------|
G|---------------7-------------9-----------|
D|--7------5-----7------7------9-----12----|
A|--7------5-----5------7------7-----12----|
E|--5------3------------5------------10----|
chorus
e|-----------------------|
B|-----------------------|
G|--7---------------7----|
D|--7--7------5-----7----|
A|--5--7------5-----5----|
E|-----5------3----------|
Repeat as necessary, then back to the main riff.
bridge/solo
e|-------------------------------------------------------------------------|
B|------------------------10--10--9--8--8--9--10--10-----------------------|
G|------------------------9---9---8--7--7--8--9---9------------------------|
D|--77666655/6666/77-----------------------------------------------------|
A|--77666655/6666/77-----------------------------------------------------|
E|--55444433/4444/55-----------------------------------------------------|
PM...................
The rhythm is somewhat shown, but you'll have to figure out the exact
strum yourself. Suffice it to say IT'S FAST.
The song ends with the first part of the main riff (on the D and G
strings)
being played over and over.
This is all my own original work.
Comments/questions/corrections can be sent to [email protected]
I'd appreciate any feedback.




Ваше мнение



Капча