BAND:GUTTERNOUTH
SONG: I LIKE DRUGS
TABBED BY: BEN MEYER [email protected]

INTRO:
G:---------------------------------
D:---------------------------------
A:---------3-3-3-3-----------------
E:-5-5-5-5---------3-3-3-3-2-2-2-2-
VERSE:
G:-------------------------
D:-------------------------
A:--------3-3-3------------
E:-5-5-5---------3-3-3-3-3-
CHORUS:
G:---------------------------------------
D:---------------------------------------
A:-2-2-2-2-5-5-5-5-5-5-------------------
E:---------------------3-3-3-3-3-2-2-2-2-


Ваше мнение



Капча