-------------------------------------------------------------------------------
Cram It Up Your Ass - Guttermouth
-------------------------------------------------------------------------------

By: Robin Krier
Album: Covered with Ants (Epitaph)

Are these guys classy or what?!?

Light, clean intro after bass kicks in
x4 x4
e|----------------------|-------------------------------|
B|-11--10--9--8---------|-16-15-13----------------------|
G|--------------8-8-8-8-|----------15-14-13-------------|
D|----------------------|-------------------13-13-13-13-|
A|----------------------|-------------------------------|
E|----------------------|-------------------------------|

Rest of song...
e|-------------------------------------------------------------------|
B|-------------------------------------------------------------------|
G|-10-10-9----------10-10-9----------10-10-9-------------------------|
D|-10-10-9-10--9-9--10-10-9-10--9-9--10-10-9-10--9-9--10--10--10---9-|
A|--8--8-7-10--9-9---8--8-7-10--9-9---8--8-7-10--9-9--10--10--10---9-|
E|----------8--7-7-----------8--7-7-----------8--7-7---8---8---8---7-|

Then learn piano and play it for another four freakin' minutes...


Ваше мнение



Капча