Song : Chicken Box
Artist : Guttermouth
Album : Deep Thoughts By Nitro Records
Tabbed by Daniel Martin

Chorus
G-------------------------------------------------------
D-------------------------------------------------------
A----5-7-5---------------------------------------------
E-7----------7-x-x-x-x-x-x-x-x----------------------

Verse
G--------------------------------------------------------
D--------------------------------------------------------
A-----5-7--5----5-7--------------------------------------
E-7-----------7-------5-----------------------------------

Listen to the song to get the rythem. x = mute
If you like Punk check for tabs by me for Limp bizkit and Mellincolin on the
BTA




Ваше мнение



Капча