-#
Chaps My Hide
By : Guttermouth
Tabbed By Robert Lauritson and David Aguilar
Intro :
Play (2x)
E|------------------------------------------------------------------------|
B|------------------------------------------------------------------------|
G|-----8---11--11--6--8---8-----------------------------------------------|
D|-----8---11--11--6--8---8-----------------------------------------------|
A|-----6---9---9---4--6---6-----------------------------------------------|
E|------------------------------------------------------------------------|
Verses:
Mute this chord as you repeat it.
E|------------------------------------------------------------------------|
B|------------------------------------------------------------------------|
G|------8(mute)-----------------------------------------------------------|
D|------8(mute)-----------------------------------------------------------|
A|------6(mute)-----------------------------------------------------------|
E|------------------------------------------------------------------------|
Chorus :
Same as intro only faster
E|------------------------------------------------------------------------|
B|------------------------------------------------------------------------|
G|-----8---11--11--6--8---8-----------------------------------------------|
D|-----8---11--11--6--8---8-----------------------------------------------|
A|-----6---9---9---4--6---6-----------------------------------------------|
E|------------------------------------------------------------------------|




Ваше мнение



Капча