Song:Casserole of Life
Band:Guttermouth
Album:Teri Yakimoto
tabbed by:Nick Mighall
>means strum
h means hammer on
r means let ring
x means mute note
Intro part 1
G:-16-16-16-13h14-14-16>-14-13----------13---------------------13-14-16-16-16-
D:-----------------------------14-14-14----16-16-16-14h16-16>-----------------
A:----------------------------------------------------------------------------
E:----------------------------------------------------------------------------
Intro part 2
G:16>-13h14-16>-14-13---------13----------------------14----16r--
D:-------------------14-14-14----16-16-16-14-14-14-16----11-16r--
A:---------------------------------------------------------------
E:---------------------------------------------------------------
Verse intro
G:---------------------------------------------------------------
D:---------------------------------------------------------------
A:-2>------------------------------------------------------------
E:---------------------------------------------------------------
Verse
G:---------------------------------------------------------------
D:---------------------------------------------------------------
A:-2>----7>------------------------------------------------------
E:-------------5>------------------------------------------------
Chorus
G:---------------------------------------------------------------
D:---------------------------------------------------------------
A:-22222222----------7777777777777777---------------------------
E:----------55555555---------------------------------------------
After Chorus
G:---------------------------------------------------------------
D:---------------------------------------------------------------
A:-22xx----77xx77xx----------------------------------------------
E:-----55xx------------------------------------------------------
*Order*
Intro part 1 x 1
Intro part 2 x 1
Intro part 1 x 1
Intro part 2 x 1
Verse intro x 1
Verse x 4
Chorus x 2
Verse x 4
Chorus x 4
After Chorus x 3
Verse x 4
Chorus x 4
After Chorus x 3
Chorus x 4
After Chorus x 1
End on A-7-
Questions, comments and corrections to:
[email protected]




Ваше мнение



Капча