guttermouth
camp fire girl#62
tabbed by Daniel182

this song is really good and fun to play, please rate this tab!

verse 1(no bass)

Chorus(00:27)
|----------------------------------------|
|----------------------------------------|
|---------33333333-77-5-3-----55-3-2-----|x2
|-33333333----------------5555------3333-|

Break(00:41)
|-----------------------------------------------------|
|-----------------------------3--5-3-2-0---3--5-3-2-0-|
|---3---5-3-2~--3--5-3-2h3--3--3---------3---3--------|x2
|-3---3-------3--3------------------------------------|

verse 2(00:55)
|-------| |--------------------------------------------------|
|-------| |--------------------------------------------------|
|-3~~~~-|x1|-3333333333333333----------------3333333333333333-|
|-------| |-----------------3333333333333333-----------------|

then....(01:09)
|----------------------------------------|
|----------------------------------------|
|-3~----3~---3~----3~---3/5~---3/5~----5-|x1
|----------------------------------------|

Chorus(01:22)
|----------------------------------------|
|----------------------------------------|
|---------33333333-77-5-3-----55-3-2-----|x2
|-33333333----------------5555------3333-|

break(01:36)
|-----------------------------------------------------|
|-----------------------------3--5-3-2-0---3--5-3-2-0-|
|---3---5-3-2~--3--5-3-2h3--3--3---------3---3--------|x2
|-3---3-------3--3------------------------------------|

then....(01:50)
|----------------------------------------|
|----------------------------------------|
|-3~----3~---3~----3~---3/5~---3/5~----5-|x1
|----------------------------------------|

Chorus(02:04)
|------------------------------| |---------------------------------------|
|------------------------------| |---------------------------------------|
|-----3---77-5-3-----55-3-2----|x1|---------33333333-77-5-3----55-3-2-----|x1
|3---------------5555------3333| |-33333333---------------5555------3333-|

Behind solo/chorus
|----------------------------------------|
|----------------------------------------|
|---------33333333-77-5-3-----55-3-2-----|x4
|-33333333----------------5555------3333-|

Outro
|------------------------|
|------------------------|
|-77-5-3------55-3-2-----|x3
|--------5555-------3333-|




Ваше мнение



Капча