Song:Bullshit
Band:Guttermouth
Album:Friendly People
tabbed by:Nick Mighall
Intro/Chorus
G:---------------------------------------------------------------
D:---------------------------------------------------------------
A:---------------------------------------------------------------
E:-7-7-7-7-5-5-5-5-7-7-7-7-5-5-5-5-------------------------------
Verse 1
G:---------------------------------------------------------------
D:---------------------------------------------------------------
A:---------------------------------------------------------------
E:-3-3-3-3-5-5-5-5-3-3-3-3-5-5-5-5-------------------------------
Verse 2/Under solo
G:---------------------------------------------------------------
D:---------------------------------------------------------------
A:-------------------------5-5-3-3-------------------------------
E:-3-3-3-3-5-5-5-5-3-3-3-3---------------------------------------
End on E-5-
A short and simple song.
Questions, comments and corrections to:
[email protected]




Ваше мнение



Капча