-##
Bruce Lee vs. ? by Guttermouth
.tab transcribed by Andrew Bilak (8/16/95)
all questions, comments, requests to ([email protected])
--------------
(standard tuning)
"So you think your kung-fu's pretty good eh? I want to fight your brother!
Him against me, let's kung-fu"
e:--9------------------------------------------------------------------------|
B:--9------------------------------------------------------------------------|
G:--9------------------------------------------------------------------------|
D:--9------------------------------------------------------------------------|
A:--9------------------------------------------------------------------------|
E:--7------------------------------------------------------------------------|
(Hold this chord until RIFF 1 starts)
BEGIN INTRO
e:-----9---5--5--7--6---7---7--7--6--7---5---5--5--7--6---4---4--4--7--6-----|
B:-----9---5--5--7--6---7---7--7--6--7---5---5--5--7--6---4---4--4--7--6-----|
G:-----9---5--5--7--6---7---7--7--6--7---5---5--5--7--6---4---4--4--7--6-----|
D:-----9---5--5--7--6---7---7--7--6--7---5---5--5--7--6---4---4--4--7--6-----|
A:-----9---5--5--5--4---7---7--7--4--5---5---5--5--5--4---4---4--4--5--4-----|
E:-----7---7--7---------5---5--5---------3---3--3---------2---2--2-----------|
(RIFF1)
e:-----9---5--5--7--6---7---7--7--6--7---5---5--5--7--6---4---4--4--7--6-----|
B:-----9---5--5--7--6---7---7--7--6--7---5---5--5--7--6---4---4--4--7--6-----|
G:-----9---5--5--7--6---7---7--7--6--7---5---5--5--7--6---4---4--4--7--6-----|
D:-----9---5--5--7--6---7---7--7--6--7---5---5--5--7--6---4---4--4--7--6-----|
A:-----9---5--5--5--4---7---7--7--4--5---5---5--5--5--4---4---4--4--5--4-----|
E:-----7---7--7---------5---5--5---------3---3--3---------2---2--2-----------|
(RIFF1)
e:----------9--9-9--9---6--7--6--7--7---5--5-5--5---6--7--6--7--7------------|
B:----------9--9-9--9---6--7--6--7--7---5--5-5--5---6--7--6--7--7------------|
G:----------9--9-9--9---6--7--6--7--7---5--5-5--5---6--7--6--7--7------------|
D:----------9--9-9--9---6--7--6--7--7---5--5-5--5---6--7--6--7--7------------|
A:----------9--9-9--9---4--5--4--7--7---5--5-5--5---4--5--4--7--7------------|
E:----------7--7-7--7------------5--5---3--3-3--3------------5--5------------|
(RIFF 2)
e:----------9--9-9--9---6--7--6--7--7---5--5-5--5---6--7--6--7--7------------|
B:----------9--9-9--9---6--7--6--7--7---5--5-5--5---6--7--6--7--7------------|
G:----------9--9-9--9---6--7--6--7--7---5--5-5--5---6--7--6--7--7------------|
D:----------9--9-9--9---6--7--6--7--7---5--5-5--5---6--7--6--7--7------------|
A:----------9--9-9--9---4--5--4--7--7---5--5-5--5---4--5--4--7--7------------|
E:----------7--7-7--7------------5--5---3--3-3--3------------5--5------------|
(RIFF 2)
END OF INTRO
e:-----9---5--5--7--6---7---7--7--6--7---5---5--5--7--6---4---4--4--7--6-----|
B:-----9---5--5--7--6---7---7--7--6--7---5---5--5--7--6---4---4--4--7--6-----|
G:-----9---5--5--7--6---7---7--7--6--7---5---5--5--7--6---4---4--4--7--6-----|
D:-----9---5--5--7--6---7---7--7--6--7---5---5--5--7--6---4---4--4--7--6-----|
A:-----9---5--5--5--4---7---7--7--4--5---5---5--5--5--4---4---4--4--5--4-----|
E:-----7---7--7---------5---5--5---------3---3--3---------2---2--2-----------|
(RIFF1)
"hi-ya, the smoke is clearing you can see...."
e:-----9---5--5--7--6---7---7--7--6--7---5---5--5--7--6---4---4--4--7--6-----|
B:-----9---5--5--7--6---7---7--7--6--7---5---5--5--7--6---4---4--4--7--6-----|
G:-----9---5--5--7--6---7---7--7--6--7---5---5--5--7--6---4---4--4--7--6-----|
D:-----9---5--5--7--6---7---7--7--6--7---5---5--5--7--6---4---4--4--7--6-----|
A:-----9---5--5--5--4---7---7--7--4--5---5---5--5--5--4---4---4--4--5--4-----|
E:-----7---7--7---------5---5--5---------3---3--3---------2---2--2-----------|
(RIFF1)
"hi-ya, kareem and bruce they made a truce...."
e:-4-4-4-4-4-4-4-4---5-5-5-5-5-5-5-5---7-7-7-7-7-7-7-7---4-4-4-4-4-4-4-4-----|
B:-4-4-4-4-4-4-4-4---5-5-5-5-5-5-5-5---7-7-7-7-7-7-7-7---4-4-4-4-4-4-4-4-----|
G:-4-4-4-4-4-4-4-4---5-5-5-5-5-5-5-5---7-7-7-7-7-7-7-7---4-4-4-4-4-4-4-4-----|
D:-4-4-4-4-4-4-4-4---5-5-5-5-5-5-5-5---7-7-7-7-7-7-7-7---4-4-4-4-4-4-4-4-----|
A:-2-2-2-2-2-2-2-2---5-5-5-5-5-5-5-5---7-7-7-7-7-7-7-7---4-4-4-4-4-4-4-4-----|
E:-------------------3-3-3-3-3-3-3-3---5-5-5-5-5-5-5-5---2-2-2-2-2-2-2-2-----|
(RIFF 3)
"... flying through the air... got stuck in peter's hair...."
e:-4-4-4-4-4-4-4-4---5-5-5-5-5-5-5-5---7-7-7-7-7-7-7-7---4-4-4-4-4-4-4-4-----|
B:-4-4-4-4-4-4-4-4---5-5-5-5-5-5-5-5---7-7-7-7-7-7-7-7---4-4-4-4-4-4-4-4-----|
G:-4-4-4-4-4-4-4-4---5-5-5-5-5-5-5-5---7-7-7-7-7-7-7-7---4-4-4-4-4-4-4-4-----|
D:-4-4-4-4-4-4-4-4---5-5-5-5-5-5-5-5---7-7-7-7-7-7-7-7---4-4-4-4-4-4-4-4-----|
A:-2-2-2-2-2-2-2-2---5-5-5-5-5-5-5-5---7-7-7-7-7-7-7-7---4-4-4-4-4-4-4-4-----|
E:-------------------3-3-3-3-3-3-3-3---5-5-5-5-5-5-5-5---2-2-2-2-2-2-2-2-----|
(RIFF 3)
" .... oboy... i think he meant machoy...."
e:-----9---5--5--7--6---7---7--7--6--7---5---5--5--7--6---4---4--4--7--6-----|
B:-----9---5--5--7--6---7---7--7--6--7---5---5--5--7--6---4---4--4--7--6-----|
G:-----9---5--5--7--6---7---7--7--6--7---5---5--5--7--6---4---4--4--7--6-----|
D:-----9---5--5--7--6---7---7--7--6--7---5---5--5--7--6---4---4--4--7--6-----|
A:-----9---5--5--5--4---7---7--7--4--5---5---5--5--5--4---4---4--4--5--4-----|
E:-----7---7--7---------5---5--5---------3---3--3---------2---2--2-----------|
(RIFF1)
"hi-ya, gino has a short ....... "
e:-----9---5--5--7--6---7---7--7--6--7---5---5--5--7--6---4---4--4--7--6-----|
B:-----9---5--5--7--6---7---7--7--6--7---5---5--5--7--6---4---4--4--7--6-----|
G:-----9---5--5--7--6---7---7--7--6--7---5---5--5--7--6---4---4--4--7--6-----|
D:-----9---5--5--7--6---7---7--7--6--7---5---5--5--7--6---4---4--4--7--6-----|
A:-----9---5--5--5--4---7---7--7--4--5---5---5--5--5--4---4---4--4--5--4-----|
E:-----7---7--7---------5---5--5---------3---3--3---------2---2--2-----------|
(RIFF1)
"hi-ya, ... escaped today, hi-ya .... they'll have to fight another day.. "
e:----------9--9-9--9---6--7--6--7--7---5--5-5--5---6--7--6--7--7------------|
B:----------9--9-9--9---6--7--6--7--7---5--5-5--5---6--7--6--7--7------------|
G:----------9--9-9--9---6--7--6--7--7---5--5-5--5---6--7--6--7--7------------|
D:----------9--9-9--9---6--7--6--7--7---5--5-5--5---6--7--6--7--7------------|
A:----------9--9-9--9---4--5--4--7--7---5--5-5--5---4--5--4--7--7------------|
E:----------7--7-7--7------------5--5---3--3-3--3------------5--5------------|
(RIFF 2)
"Oh... Oh my god ... it's a chinese secret...."
e:----------9--9-9--9---6--7--6--7--7---5--5-5--5---6--7--6--7--7------------|
B:----------9--9-9--9---6--7--6--7--7---5--5-5--5---6--7--6--7--7------------|
G:----------9--9-9--9---6--7--6--7--7---5--5-5--5---6--7--6--7--7------------|
D:----------9--9-9--9---6--7--6--7--7---5--5-5--5---6--7--6--7--7------------|
A:----------9--9-9--9---4--5--4--7--7---5--5-5--5---4--5--4--7--7------------|
E:----------7--7-7--7------------5--5---3--3-3--3------------5--5------------|
(RIFF 2)
"Hi------------ya, free shoot baskets, two points hi-ya!"
e:-----9---5--5--7--6---7---7--7--6--7---5---5--5--7--6---4---4--4--7--6-----|
B:-----9---5--5--7--6---7---7--7--6--7---5---5--5--7--6---4---4--4--7--6-----|
G:-----9---5--5--7--6---7---7--7--6--7---5---5--5--7--6---4---4--4--7--6-----|
D:-----9---5--5--7--6---7---7--7--6--7---5---5--5--7--6---4---4--4--7--6-----|
A:-----9---5--5--5--4---7---7--7--4--5---5---5--5--5--4---4---4--4--5--4-----|
E:-----7---7--7---------5---5--5---------3---3--3---------2---2--2-----------|
(RIFF1)

e:-----9---5--5--7--6---7---7--7--6--7---5---5--5--7--6---4---4--4--7--6-----|
B:-----9---5--5--7--6---7---7--7--6--7---5---5--5--7--6---4---4--4--7--6-----|
G:-----9---5--5--7--6---7---7--7--6--7---5---5--5--7--6---4---4--4--7--6-----|
D:-----9---5--5--7--6---7---7--7--6--7---5---5--5--7--6---4---4--4--7--6-----|
A:-----9---5--5--5--4---7---7--7--4--5---5---5--5--5--4---4---4--4--5--4-----|
E:-----7---7--7---------5---5--5---------3---3--3---------2---2--2-----------|
(RIFF1)




Ваше мнение



Капча