Song: Big Pink Dress
Band: Guttermouth
Album: Musical Monkey
tabbed by: Brandon, bassist for the UNKNOWNS
If you have any questions, comments, or corrections
(cause I'm pretty sure I got most, but not all),
e-mail me at: [email protected]

INTRO
G:---------------------------------------------------------------
D:---------------------------------------------------------------
A:-------------------------55------------------------------------
E:7-7-7-7-77-55-7-7-7-7-77----7-7-7-7-7-77-55-7-7--77------------
VERSE
G:----------------------------|----------------------------------
D:----------------------------|----------------------------------
A:-------------------------5-5|-x4-------------------------------
E:7-7-7-7-77-55-7-7-7-7-77----|----------------------------------
CHORUS
G:---------------|------------------------------------------------
D:---------------|------------------------------------------------
A:----5-5-7------|-x4---------------------------------------------
E:7-7---------5-5|------------------------------------------------
BRIDGE
G:-------------------------------|--------------------------------
D:-------------------------------|--------------------------------
A:----------------7-7---7-7-7---7|-x4-----------------------------
E:7-7---7-5-5---5----------------|--------------------------------
FILL 2
G:---------------|------------------------------------------------
D:---------------|------------------------------------------------
A:---------------|-x4---------------------------------------------
E:10/7-------10/7|------------------------------------------------
ENDING 1 ENDING 2
G:---------------|----||------------------------------------------
D:---------------|----||------------------------------------------
A:----5-5-7------|-x2-||------------------------------------------
E:7-7---------5-5|----||7-7--77-----------------------------------
Thats about it... It should go like this:
INTRO
VERSE
CHORUS
VERSE
CHORUS (x2)
BRIDGE
FILL
CHORUS
ENDING 1
ENDING 2




Ваше мнение



Капча