Song:Asshole
Band:Guttermouth
Album:Friendly People
tabbed by:Nick Mighall
The other version of this tab was not quite right.
Here is the full and correct version.
Verse Bit Before Second Chorus
G:-----------------------------|----------------------------------
D:-----------------------------|----------------------------------
A:-2>----0-2>----0-2>-etc------|-2-5-0-5-0-2----------------------
E:-----------------------------|----------------------------------
Chorus
G:---------------------------------------------------------------
D:---------------------------------------------------------------
A:-2-2-2-2-2-2-2-2---------5-5-0-0-------------------------------
E:-----------------3-3-3-3---------------------------------------
Bit Before Third(and final)Chorus
G:---------------------------------------------------------------
D:---------------------------------------------------------------
A:-2---5-0-------------------------------------------------------
E:---3-----------------------------------------------------------
End on:
G:---------------------------------------------------------------
D:---------------------------------------------------------------
A:-2-5-0-5-0-2---------------------------------------------------
E:---------------------------------------------------------------

Questions,comments,corrections?
[email protected]




Ваше мнение



Капча