ABORT MISSION - Guttermouth
Bass intro Verse- Chorus-
pm-----|
e|--------------------------------------------------------------------|
B|--------------------------------------------------------------------|
G|-----------------------77----77-------------------------------------|
D|-99779977-----------99-77-77-77--------------77777777---------------|
A|--------------------99-55-77-55--------------77777777---------------|
E|--------------------77----55-----------------55555555---------------|
Interlude-(pm)
e|--------------------------------------------------------------------|
B|--------------------------------------------------------------------|
G|--------------------------------77------------------777-77-77-------|
D|--------77----77---4-6-------77-77-77-4-6-------777-777-77-77-------|
A|---77-55--5-44--4-5-7--------77-55-77-4-6-------777-555-44-55-------|
E|-55--5-----------------------55----55-2-4-------555-----------------|
Last verse
e|--------------------------------------------------------------------|
B|--------------------------------------------------------------------|
G|-99----77-----------------------------------------------------------|
D|-99-77-77-99------------7-------------------------------------------|
A|-77-77-55-99------------7-------------------------------------------|
E|----55----77------------5-------------------------------------------|
====




Ваше мнение



Капча