----------------------------------------------
123 Slam - Guttermouth
----------------------------------------------

Tabbed by:Simon Abbottsmith
Email:[email protected] (double underscore)

Tuning:EADGBE

Verse:
e|--------------|
B|--------------|
G|--------------|
D|---7----------|
A|---7----------|
E|---5----------|
just this one chord through the whole verse, rythem is
easy enough if you listen to the song

Chorus:
e|----------------|
B|----------------|
G|------8--7--5---|
D|---7--8--7--5---|
A|---7--6--5--3---|
E|---5------------|

The Bridge Uses the same chords as the Chorus

Finish on the Starting Chord

Comments are very welcome
Enjoy!




Ваше мнение



Капча