this tab was created using Tab Studio 1.0 http://www.geocities.com/tabstudio/
Artist : Guster
Song : Rocketship
Album : Goldfly
Tuning : Normal EADGBE
Tabbed By : Nick Dennis
E-mail Address: [email protected]
great song that is very simple to play.
Chords
Bm D G F# A
e |-2---2---3---2---0-|
B |-3---3---3---2---2-|
G |-4---2---0---3---2-|
D |-4---0---0---4---2-|
A |---------2---4---0-|
E |---------3---2-----|
Intro
e |-----7---5---5-----------------|
B |---3-----------7h8-7-5-7-5-3-2-|
G |-4-----7---7-------------------|
D |-------------------------------|
A |-------------------------------|
E |-------------------------------|
e |-----7---5---5-----------------|
B |---3-----------7h8-7-5-5-3-2-0-|
G |-4-----7---7-------------------|
D |-------------------------------|
A |-------------------------------|
E |-------------------------------|
Verse:
Chord Progression: Bm D G F#
They'll find it on the stairs.
Politely placed it there.
Been so unkind without a hint,
a warning sign for them.
Read my apology.
Their hope of disbelief.
But no denial changes things.
No remedy ahead.
Pre-Chorus:
G A
I am not to be martyred,
G
I am not to be worshipped.
A
Did it not to be strong strong strong
G A
I implicate no others in this crime.
Chorus:
The chorus is just the same old: Bm D G F#
I'm off on a rocketship
prepared for something new.
I'm off on a rocketship
estatic with the view.
I am scared of the things upcoming,
and I want for the things I don't have.
Cannot stand to be one of many,
I'm not what they are.
Then back to the verse: Bm D G F#
Will gather in my name.
The mourning will begin.
And all or nothing over there
is teasing me again.
Precourus 1 more time then the Chorus again, but this time the chorus repeats the second half like this:
I'm off on a rocketship
prepared for something new.
I'm off on a rocketship
estatic with the view.
I am scared of the things upcoming,
and I want for the things I don't have.
Cannot stand to be one of many,
I'm not what they are.
I am scared of the things upcoming,
and I want for the things I don't have.
Cannot stand to be one of many,
I'm not what they are.




Ваше мнение



Капча