Artist: Guster

From the Album:
Parachute

Song Title:
Dissolve

2 guitar parts arranged for 1 guitar...still sounds pretty good, I think!

Verse: Em B/Bm A G

e: --------------------------------------------------------------------------|
B: ------------------8--8--8--8-----3--3--3--3-------------------------------|
G: ---------------9--9--9--9--9--4--4--4--4--4-----6--6--6--6-----4--4--4--4-|
D: ---------------9--9--9--9--9--4--4--4--4--4--7--7--7--7--7--5--5--5--5--5-|
A: ---------5--7--7--7--7--7--7--2--2--2--2--2--7--7--7--7--7--5--5--5--5--5-|
E: -3--5^7--------------------------------------5--5--5--5--5--3--3--3--3--3-|
And it's true he was so young But you are
e: ------------------------------------------------------------|
B: ----8--8--8--8-----3--3--3--3-------------------------------|
G: -9--9--9--9--9--4--4--4--4--4-----6--6--6--6-----4--4--4--4-|
D: -9--9--9--9--9--4--4--4--4--4--7--7--7--7--7--5--5--5--5--5-|
A: -7--7--7--7--7--2--2--2--2--2--7--7--7--7--7--5--5--5--5--5-|
E: -------------------------------5--5--5--5--5--3--3--3--3--3-|
here and the moment clouds your brain
e:----------------------------------------------------|
B: ----8--8--8--8-----3--3--3--3----------------------|
G: -9--9--9--9--9--4--4--4--4--4-----6--6--6--6-----4-|
D: -9--9--9--9--9--4--4--4--4--4--7--7--7--7--7--5--5-|
A: -7--7--7--7--7--2--2--2--2--2--7--7--7--7--7--5--5-|
E: -------------------------------5--5--5--5--5--3--3-|
You could've even saved him that means nothing
e: -----------------------------------------------------------------------------|
B: ------------------8--8--8--8-----3--3--3--3----------------------------------|
G: ---------------9--9--9--9--9--4--4--4--4--4-----6--6--6--6--6--6--6--6--6--6-|
D: ---------------9--9--9--9--9--4--4--4--4--4--7--7--7--7--7--7--7--7--7--7--7-|
A: ---------5--7--7--7--7--7--7--2--2--2--2--2--7--7--7--7--7--7--7--7--7--7--7-|
E: -3--5^7--------------------------------------5--5--5--5--5--5--5--5--5--5--5-|
You could've even been there it's a lie

Prechorus:
G A G
How can you blame him for your life
A G
It's a mental suicide
A Bm
and it carries you away

Chorus: Bm A
Voice 1:
Dissolve your fears into one
Voice 2:
Dissolve will try to figure out
Dissolve will find a way

e: ------------------------------------------------------------|
B: ----8--8--8--8----------------------------------------------|
G: -9--9--9--9--9-----7--7--7--7-----------------4--4--4--4--4-|
D: -9--9--9--9--9--9--9--9--9--9-----7--7--------5--5--5--5--5-|
A: -7--7--7--7--7--9--9--9--9--9--9--7--7--7--9--5--5--5--5--5-|
E: ----------------7--7--7--7--7-----5--5--------3--3--3--3--3-|

e: ---------------------------------------------------------------|
B: -8--8----------------------------------------------------------|
G: -9--9--------------------------7--7-----------------4--4--4--4-|
D: -9--9-----------0--9--9--9--9-----7--7--7--7--7--5--5--5--5--5-|
A: -7--7--7--9--7-----9--9--9--------5--7--7--7--7--5--5--5--5--5-|
E: -------------------7--7--7-----------5--5--5--5--3--3--3--3--3-|

e: ------------------------------------------------------------|
B: ----8--8--8--8-----3--3--3--3-------------------------------|
G: -9--9--9--9--9--4--4--4--4--4-----6--6--6--6-----4--4--4--4-|
D: -9--9--9--9--9--4--4--4--4--4--7--7--7--7--7--5--5--5--5--5-|
A: -7--7--7--7--7--2--2--2--2--2--7--7--7--7--7--5--5--5--5--5-|
E: -------------------------------5--5--5--5--5--3--3--3--3--3-|
And it's true we aren't immune But there's a
e: ---------------------------------------------|
B: ----8--8--8--8-----3--3--3--3----------------|
G: -9--9--9--9--9--4--4--4--4--4-----6--6--6--6-|
D: -9--9--9--9--9--4--4--4--4--4--7--7--7--7--7-|
A: -7--7--7--7--7--2--2--2--2--2--7--7--7--7--7-|
E: -------------------------------5--5--5--5--5-|
way and denial crowds your brain
e: --------------------------------------------------------------------|
B: ---------------------8--8--8--8-----3--3--3--3----------------------|
G: ---------------7--9--9--9--9--9--4--4--4--4--4-----6--6--6--6-------|
D: -------7--7^9-----9--9--9--9--9--4--4--4--4--4--7--7--7--7--7--5--5-|
A: -7--9-------------7--7--7--7--7--2--2--2--2--2--7--7--7--7--7--5--5-|
E: ------------------------------------------------5--5--5--5--5--3--3-|
To try and understand him that means nothing
e: --------------------------------------------------------------------|
B: ------------------8--8--8--8-----3--3--3--3-----------2--2--2--2----|
G: ---------------9--9--9--9--9--4--4--4--4--4--4--4-----2--2--2--2----|
D: ---------------9--9--9--9--9--4--4--4--4--4--------4--2--2--2--2--0-|
A: ---------5--7--7--7--7--7--7--2--2--2--2--2-----------0--0--0--0----|
E: -3--5^7-------------------------------------------------------------|
To try and find the meaning it's a lie
e: ------------------------------|
B: ----------------2--2--2--2--2-|
G: -0--0--0--0--0--2--2--2--2--2-|
D: -0--0--0--0--0--2--2--2--2--2-|
A: -2--2--2--2--2--0--0--0--0--0-|
E: -3--3--3--3--3----------------|
How can you blame him for your life
It's a mental suicide
And it carries you away

Chorus: Bm A
Voice 1:
Dissolve your fears into one
Voice 2:
Dissolve will try to figure out
Dissolve will find a way
Bm
To right or wrong
To understand
A
To figure out
It's in his plans
Bm
To leave alone
To find a way
A
To figure out
It's not your fault

e: ----------------------------------------------------------------|
B: -----------------3--3--3--3-------------------------------------|
G: -2--2------2--4--4--4--4--4--4--4^2-2--2--2--2--2---------------|
D: -2--2--2^4----4--4--4--4--4------2--2--2--2--2--2---------------|
A: -2--2---------2--2--2--2--2------0--0--0--0--0--0--0^2^5--0^2^5-|
E: -0--0-----------------------------------------------------------|

e: ---------------------------------------------------------------------------|
B: ---------------------------------------------------------------------------|
G: -0--0--0--0----------------------------------------------------------------|
D: -2--2--2--2--2--2--0--0--0--0-----2--2--2--2--2--2--2--2--2--2--2--2--2--2-|
A: -2--2--2--2-----0--0--0--0--0--2--4--4--4--4--4--2--2--2--2--2--2--2--2--2-|
E: -0--0--0--0----------------------------------------------------------------|

e: ------------------------------------------------------------|
B: ----8--8--8--8-----3--3--3--3-------------------------------|
G: -9--9--9--9--9--4--4--4--4--4-----6--6--6--6-----4--4--4--4-|
D: -9--9--9--9--9--4--4--4--4--4--7--7--7--7--7--5--5--5--5--5-|
A: -7--7--7--7--7--2--2--2--2--2--7--7--7--7--7--5--5--5--5--5-|
E: -------------------------------5--5--5--5--5--3--3--3--3--3-|
And it's the both of you he's ruined He's torn a-

e: ------------------------------------------------|
B: ----8--8--8--8-----3--3--3--3-------------------|
G: -9--9--9--9--9--4--4--4--4--4-----6--6--6--6----|
D: -9--9--9--9--9--4--4--4--4--4--7--7--7--7--7--5-|
A: -7--7--7--7--7--2--2--2--2--2--7--7--7--7--7--5-|
E: -------------------------------5--5--5--5--5--3-|
way all the desire born inside
e: ----------------------------------------------------------------|
B: -----------------8--8--8--8-----3--3--3--3----------------------|
G: -6^7^6--------9--9--9--9--9--4--4--4--4--4-----6--6--6--6-----4-|
D: --------7--9--9--9--9--9--9--4--4--4--4--4--7--7--7--7--7--5--5-|
A: --------------7--7--7--7--7--2--2--2--2--2--7--7--7--7--7--5--5-|
E: --------------------------------------------5--5--5--5--5--3--3-|
You could've even saved him that means nothing
e: -----------------------------------------------------------------------|
B: ---------------8--8--8--8-----3--3--3--3-------------------------------|
G: ---------------9--9--9--9--4--4--4--4--4-----6--6--6--6-----4--4--4--4-|
D: ---------------9--9--9--9--4--4--4--4--4--7--7--7--7--7--5--5--5--5--5-|
A: ---------5--7--7--7--7--7--2--2--2--2--2--7--7--7--7--7--5--5--5--5--5-|
E: -3--5^7-----------------------------------5--5--5--5--5--3--3--3--3--3-|
You could've even been there it's a lie
e: ---------------------------------------------------|
B: ----8--8--8--8-----3--3--3--3----------------------|
G: -9--9--9--9--9--4--4--4--4--4-----6--6--6--6-----4-|
D: -9--9--9--9--9--4--4--4--4--4--7--7--7--7--7--5--5-|
A: -7--7--7--7--7--2--2--2--2--2--7--7--7--7--7--5--5-|
E: -------------------------------5--5--5--5--5--3--3-|
(2 voices)To try and understand him that means nothing
e: ------------------------------------------------------------------------|
B: ----------------8--8--8--8-----3--3--3--3-------------------------------|
G: ----------------9--9--9--9--4--4--4--4--4-----6--6--6--6--6--6--6--6--6-|
D: ----------------9--9--9--9--4--4--4--4--4--7--7--7--7--7--7--7--7--7--7-|
A: -------------7--7--7--7--7--2--2--2--2--2--7--7--7--7--7--7--7--7--7--7-|
E: -7^10--7^10--------------------------------5--5--5--5--5--5--5--5--5--5-|
To try and find the meaning it's a lie
Bm A
Chorus: Bm A
Voice 1:
Dissolve your fears into one
Voice 2:
Dissolve will try to figure out
Dissolve will find a way

Bm
To leave alone
To find a way
A
To figure out
It's not your fault
G
You see yourself
A
Mother would be proud of you
Bm
To leave alone
To find a way
A
To figure out
It's not your fault
G
You see yourself
A
Mother would be proud of you proud of you proud of you anymore

e: ------------------------------------------------------------|
B: ----8--8--8--8-----3--3--3--3-------------------------------|
G: -9--9--9--9--9--4--4--4--4--4-----6--6--6--6-----4--4--4--4-|
D: -9--9--9--9--9--4--4--4--4--4--7--7--7--7--7--5--5--5--5--5-|
A: -7--7--7--7--7--2--2--2--2--2--7--7--7--7--7--5--5--5--5--5-|
E: -------------------------------5--5--5--5--5--3--3--3--3--3-|

Repeat/ad lib until end


Ваше мнение



Капча