Transcribed by Cleafer

Artist: Guster

From the Album:
Goldfly

Song Title:
Airport Song

Capo on 2nd for entire song.

Intro riff: repeat x 4
e|-------------------------------------------------------
B|-------------------------------------------------------
G|-------------------------------------------------------
D|--------0--------0----------0--------------------------
A|--2-2-2---2-2-2-2---2-2-2-2----2-2-2-------------------
E|-------------------------------------0--0--------------
Glad you made it, welcome to the farm.

G(muted)
Who's your daddy, I'm your daddy now.

{Play Intro riff)
I here seeking only what I need.

G(muted)
In your mind is where I'll plant my seed.

G
e--X----------------------------------------------------
B--X----------------------------------------------------
G--0----------------------------------------------------
D--0----------0----------0-----------0----------0-------
A--2----2-2-2----2-2-2-2----0-0-0-0-----0-0-0-0---------
E--3----------------------------------------------------

It's for sure.

Bm G
Let me keep you in this place
A Bm
you'll be better off this way.
G
I will keep you warm and safe,
A
you'll be better off this way.
Bm A
Learn to love the price you pay.
G F#
Trust me dear your better off this way.

(B - F - E repeat power chords)
Put to bed son and sister moon.
G
I'll be hiding in your dirty room.
(B - F - E repeat)
I'll go there seeking only what I need.
G Bm
La Ti da will stay there till we bleed.
A
It's for sure.

Bm A G
Let me keep you in this place
F# Bm
you'll be better off this way.
A G
I will keep you warm and safe,
F#
you'll be better off this way.
Bm A
I will not wake you from your sleep.
G F#
leave you wandering counting sheep.
Bm A
No more sad and sunshine days
G F#
Trust me dear, you're better off this way.
A
You'll be selling books at the airport.

(B - F - E repeat till end)




Ваше мнение



Капча