You're crazy
Guns N' Roses
GN'R Lies
x2
A G A G A G D
A G A G A G Em
D (multiple times)
A G A G A G D
A G A G A G Em
D (multiple times)
Em D C

SOLO:
|-----------------------------------------------------------------------------|
|-7-------------------7-7-7-7--7-----9-7qb-------9hb--9hb--9hbrp7---9-7qb-----|
|-9fb-------r9hs-9-9--9-9-9-9-r9p7---9-7qb-------9fb--9fb--9fbrp7---9-7qb-----|
|----------------------------------9-------9-(7)------------------9-------9-7-|
|-----------------------------------------------------------------------------|
|-----------------------------------------------------------------------------|

|-----------------------------------------------7---------7---------------|
|-9-9hbr-7-9-7qb------9-9qbrp7--(7)qb---------7---7--10fb---10-7----------|
|-9--------9-7qb------9-9qbrp7--(7)qb-----9fb--------------------9fbrp7-9-|
|-----------------9-7-----------------9p7---------------------------------|
|-------------------------------------------------------------------------|
|-------------------------------------------------------------------------|

|-------------------------------------------------------9-------------------|
|-7----------9hbrp7---9-----------------------------------------------------|
|---7hb-------------9----7hb------------------------7/9-9-------------------|
|-------9-7------------------9-7qb-----------------------------7---7--9-----|
|----------------------------------9-8-7fbrp5-7-5----------7/9---9----------|
|---------------------------------------------------------------------------|

|-----------------------------------------------------------------|
|----------------------------1210----109---97----75---54-----|
|-----7------9-------11------------11------9-----8------6-----42-|
|-6/9---9/11---11/13----13----------------------------------------|
|-----------------------------------------------------------------|
|-----------------------------------------------------------------|

Notation: qb = Quarter step bend
hs = Half step bend
fb = Full step bend
/ = Slide up
= Slide down
p = Pull off
h = Hammer on
r = Release bend
~ = Vibrato




Ваше мнение



Капча