Yesterdays
Guns N` Roses
Use your illusion II

Tabbed by: Dixie Cup
[email protected]

Here`s a rather simple GN`R tune off of UYI II according to my ear (sans solo)
I don`t remember what notation we agreed on in this group so I`m just going
to use H for hammer on. I don`t have time to post tabs/chords to songs
often, but if anyone wants more GN`R I can post some songs when I have the time.

Call this Rhythm Figure A if you want
D C G5
---0h2--------------------0h2-------------------2--0-------3-------|
|--------3--------------3-------3-----------------------3-----------3----3---3-|
2--------2-------2-----2------------0-------0-------------0----0---|
|--0-----------------------4-----------------0----------2----------------------|
----------------------------------------3--------------------------|
-------------------------------------------------------------------|

Chords: Cadd2=> x32030 and
G5=> 3x0033

The song goes like this
2x Rhythm Figure A

enter lyrics
(play Rythm Figure A where you see D C G5)

D C G5
Yesterday there was so many things I was never told
D C G5
Now that I`m startin` to learn I feel I`m growin` old
D Cadd2 G5
`Cause yesterday`s got nothin` for me. Old pictures that I`ll always see
D G5
Time just fades the pages in my book of memories.

(Insert Verse 2)

Chorus (underline indicates drag out the word,
C5 is just power chord on 3rd fret):

A B C5 G5
Ooh,____________yesterday`s________ got nothin` for me.__________
A B C5 G5
Yesterday`s________ooh,__ __________got nothin` for me.__________

Chords for solo are (if someone wants I can post tab of how I play the solo):
Bm G Bm GBm C#m D E

Other lyrics:

2nd verse:
Prayers in my pocket and no hand in destiny.
I`ll keep movin` along with no time to plant my feet.
`Cause yesterday`s got nothin` for me.
Old pictures that I`ll always see.
Some things could be better if we`d just let them be.

3rd verse:
Yesterday there were so many things I was never shown.
Suddenly this time I found I`m on the streets and I`m alone.
Yesterday`s got nothin` for me. Old pictures that I`ll always see.
I ain`t got time to reminisce old novelties.

The song structure is basically:

2x Rythm Figure A
Verse 1
Verse 2
Chorus
Solo
Verse 3
Chorus

------------------------------------------------------------------------

Yesterdays (solo)
Guns N` Roses
Use your illusion II

Tabbed by: Stephen Iggulden
[email protected]

Guitar solo:
----------------------------------------------------------|
-------------------------12-------------------------------|
|-9fb-r9h-r9p7-9-7---7--------14fb~~----14-11-------------------------|
-------9---9----------------------14hbr-12-14-14hb-12~~~~-|
----------------------------------------------------------|
----------------------------------------------------------|

--------------------------------------------------------------|
|---------12-14~~~-14-12fb~~~~-14-14hb---14--14-14-15fb~~~~-15-12---------|
|-14fb~~~---------------------------------------------------------13------|
---------------------------------------------------------14~~-|
--------------------------------------------------------------|
--------------------------------------------------------------|

|--------12--------12--------------------------12-------15-------|
|----------12-15fb---15-12-------------------12---15/17----1715-|
|-12/13--------------------14-12h13----12h13---------------------|
------------------------14---------------------------|
-----------------------------------------------------|
-----------------------------------------------------|




Ваше мнение



Капча