-##
From: [email protected] (Steve L Portigal)

Double Talkin' Jive
(Guns N Roses - Use Your Illusion I)
Main Riff:
------------------------------------------------
------------------------------------------------
------------------------------------------------
---2--2------2--2-------------------------------
---2--2------2--2----------------2p--0----------
---0--0---0----------0---3p--0----------3p--0---
Palm mute the 6th string slightly.
Solo:
----------------------------------------------------------------------------
----------------------------------------------H-P-----H---------------------
---------[[1]]----[[1]]---H-P----4~~~~~-/-7-5-7-5-\-4-5~~~~----------------
2-/-3~~~-3---3~~~-3---3-2-3-2-----------------------------------------------
------------------------------2---------------------------------------------
----------------------------------------------------------------------------
------------------H-P-----H-----------------------H--P---------H------------
--8--6-5-6--/-8-6-8-6-\-5-6----/-12--/-15~~~-13--15-13--\--12-13------------
5---------------------------4-----------------------------------------------
----------------------------------------------------------------------------
----------------------------------------------------------------------------
----------------------------------------------------------------------------
H[[1]] H P
---15--13-13-12-13----13-12~~~-12-13-12\10--H-------------------------------
13-----------------------------------------12-------------------------------
----------------------------------------------------------------------------
----------------------------------------------------------------------------
----------------------------------------------------------------------------
----------------------------------------------------------------------------
[[1/2]]
---H-P-----------------------------------------[[1]]------19------19~~~-----
8-12-8--H--P--------H-P-----------------------18----18-17-------------------
-------11-10-----9-10-9---12\10---/14~~~--/17-------------------------------
----------------------------------------------------------------------------
----------------------------------------------------------------------------
----------------------------------------------------------------------------
[[1]]
-20---20~~------------20-19-20------------[[1/2]]-----19-18-19--------------
------------18-17-18------------18-17-18-17-----17~~------------------------
----------------------------------------------------------------------------
----------------------------------------------------------------------------
----------------------------------------------------------------------------
----------------------------------------------------------------------------
rake
---19----19--------x--------------------------------------------------------
17----17----17------x--------[[1]]------------------------------------------
---------------------x-9-12-10----10(10)(10)~~~--12--10--12--10-------------
----------------------------------------------------------------------------
----------------------------------------------------------------------------
----------------------------------------------------------------------------
----------------------------------------------------------------------------
----------------------------------------------------------------------------
x-x-10 9-(9)-(9)~~~--4-(4)-(4)-(4)~~~---------------------------------------
---------------------------------------6-(6)-(6)~~~-2-(2)-(2)~~~--2-/-3-----
----------------------------------------------------------------------------
----------------------------------------------------------------------------
--------------------------------------------7~~~~---------------------------
----------------3-/-6~~~--5-6-5-6-5-6---------------------------------------
-------2--3--5------------------------6--4----------------------------------
-3--5-----------------------------------------------------------------------
----------------------------------------------------------------------------
----------------------------------------------------------------------------
[Stuff Missing] -accoustic
Notes:
[[x]] - x step bend
~~~ - vibrato
H - Hammer on
P - Pull off
/ \ - Slide
(x) - Strike note while last one still ringing




Ваше мнение



Капча