Sympathy for the Devil
Guns n' Roses
Tuned down 1/2 step to Eb
Drums, Bongas, Axl's Ooooah's etc....
Please allow me to intro- -duce myself
||-------------------------|-------------------------------------|--------------
||-------------------------|-------------------------------------|--------------
||*---------9-----9-----9--|----------------------7-----7-----7--|--------------
||*--9---9--9--9--9--9--9--|------9--9------7--7--7--7--7--7--7--|--------------
||---7---7-----7-----7-----|------7--7------5--5-----5-----5-----|--------------
||-------------------------|-------------------------------------|--------------
I'm a man with wealth and taste
------------------------------------------------------------------------||------
------------------------------------------------------------------------||------
--------------------------------------------------------9-----9-----9--*||------
-7--7---------------7--7-----7--7------------7-9--9--9--9--9--9--9--9--*||------
-5--5--7--7--7------5--5-----5--5-----x--x---5/7--7--7-----7-----7------||------
-------5--5--5----------------------------------------------------------||------
oooah Pleased to meet you hope you guessed my name
----------------------------------------------------------------|---------------
----------------------------------------------------------------|---------------
----------------------------------------------------------------|---------------
---------4---------------------9--9-4---------------------------|--7-9--9--9----
-/-------2---------------------7--7/2---------------------------|--5/7--7--7----
----------------------------------------------------------------|---------------
(long slide)
But what's puzzling you is the
-----------------------------------------|--------------------------------------
-----------------------------------------|--------------------------------------
9-----9-----9-------------9-----9-----9--|--------------------------------------
9--9--9--9--9--7-9--9--9--9--9--9--9--9--|------------4--------9--9-4-----------
---7-----7-----5/7--7--7-----7-----7-----|------------2--------7--7/2-----------
-----------------------------------------|--------------------------------------
nature of my game.
-----------------------------------------------|--------------------------------
-----------------------------------------------|--------------------------------
---------------------------9-----9-------------|--------------------------------
----------------7-9--9--9--9--9--9--9-----9-4--|--------------------------------
----------------5/7--7--7-----7-----7--x--7\2--|--------------------------------
-----------------------------------------------|--------------------------------

I'll post the first solo, whenever my CD is returned, but I haven't a clue
about the second. Hopefully Slash'll return, but....
My next attempt is 'March of the Black Queen' by Queen, any pointers would
be appreciated.
Comments, Suggestions, Flames etc to: [email protected]
Brian Freyne,
Waterford, Ireland.




Ваше мнение



Капча