Shotgun blues
Guns N' Roses
Use your illusion II
Guitar Solo:
|-------------------------------------------------------------2-------|
|-----------------------------------------------------------2---2-5fb-|
|---------------------------------------------2---2---2-4fb-----------|
|-----------------2-----2---4-2h4p2---2-4p2h4---4---4-----------------|
|---------2-0-2/4---3-4---4---------4---------------------------------|
|-2-5-2-5-------------------------------------------------------------|
|--------------------------------2-------5---7----5h7p54---5---4h5p4-|
|--5-2-------------------------2---2-4/7---7---7----------7---7-------|
|------4fb-4hbrp2---4---2--4fb----------------------------------------|
|-----------------4---4-----------------------------------------------|
|---------------------------------------------------------------------|
|---------------------------------------------------------------------|
|----------12~~~~~-----------r12-------------------------------------|
|-7-5-12fb---------r12~~~~fb------------------------------------------|
|---------------------------------------------------------------------|
|---------------------------------------------7-7-9p7---7-9/11-9-/11--|
|-----------------------------------7-7-7h9p7---------9---------------|
|---------------------------------7-----------------------------------|
|--------------------------------------------------------------9-|
|----------------10hb----------------------------------9-11---10-|
|-9h11p9----9h11------11p9-11p9-11-11-(11)p9----11-----9-11-9----|
|--------11----------------------------------11----11------------|
|----------------------------------------------------------------|
|----------------------------------------------------------------|
|-----9--9--9---7-7-75-5-5-54-4-4-2---------------------------7-----|
|-10-10-10-109-9-9-97-7-7-75-5-5-4---------------------------------|
|-------------------------------------4-4-4~~~~~~~~~-4-4-2--4/8---8/9-|
|-----------------------------------------4----------4-4-2------------|
|---------------------------------------------------------------------|
|---------------------------------------------------------------------|
|-9------10-------11-------12~~~~~~~~~~~~~~~~~-(12)------------------|
|---------------------------------------------------------------------|
|---9/10----10/11----11/13--------------------------------------------|
|---------------------------------------------------------------------|
|-------------------------------------------------------12fb~~b(2)r--|
|---------------------------------------------------------------------|




Ваше мнение



Капча