Right next door to hell
Guns N` Roses
Use your illusion 1

Riff A
E|-----------------|-------------------|-----------------|------------|
B|-----------------|-2^rp0--2^rp0--2p0-|-----------------|-2^rp0--2~~-|
G|-----------------|-2^rp0--2^rp0--2p0-|-----------------|-2^rp0--2~~-|
D|-------2-0-------|-------------------|------2-0--------|------------|
A|-----2-----------|-------------------|-----2-----------|------------|
E|-0-3-------0-3-0-|-------------------|-0-3-------0-3-0-|------------|

Riff A1
E|--------------------------|-------------------------|------------|-------------|
B|--------------------------|-14^2p12--14^2p12--14p12-|------------|-14^r12-14~~-|
G|--------------------------|-14^2p12--14^2p12--14p12-|------------|-14^r12-14~~-|
D|----------------------2-0-|-------------------------|--------2-0-|-------------|
A|--------------------2-----|-------------------------|------2-----|-------------|
E|-12-(12)--0-0--0-3-------|-------------------------|--0-3-------|-------------|

(end riff A1)
E|--------------------------|------------|-------------|
B|--14^2p12--14^2p12--14p12-|------------|-14^r12-14---|
G|--14^2p12--14^2p12--14p12-|------------|-14^r12-14---|
D|--------------------------|--------2-0-|-------------|
A|--------------------------|------2-----|-------------|
E|--------------------------|--0-3-------|-------------|
[verse 1]
B5 D5 B5 A5
G5
1. i`ll take a nicotine cafeine sugar fix jesus don`t ya git tired of turning
tricks
2. my mama never really said much to me she was much too young and scared ta be
A5 B5 D5 B5 A5
but when your innocence dies you`ll find the blues seems all our heroes were
hell "freud" might say that`s what i need but all i really ever get is greed
G5 A5 B5 D5 B5
born to lose just walkin` through time you believe this heat another empty house

an most my friends they feel the same hell we don`t even have ourselves to blame

A5 G5 A5 B5 D5 B5
another dead end street gonna rest my bones sit for a spell this side of heaven
but times are hard and thrills are cheaper as your arms get shorter your pockets

A5 G5 A5 E5 D5 A5 E5 F#5
this close to hell right next door to hell why don`t ya write a letter to me
get deeper right next door to hell why don`t ya write a letter to me

D5 A5
i said i`m right next door to hell
i said i`m right next door to hell

E5 F#5 D5 A5 E5 F#5
an so many eyes are on me yeah right next door to hell got nowhere else to be
an so many eyes are on me yeah right next door to hell i never thought this is
where i`d be

D5 A5 E5 F#5
right next door to hell feels like the walls are closing in on me.
but i`m right next door to hell thinkin`time`ll stand still for me.

[play riff A(2x) then riff A1]

[verse 2]

GUITAR SOLO;
E|-2/----------12-12-------12-12-------12-------12-12-12-12-------12------12-12-12-12-|
B|-2/----------12-12-------12-12-------12-------12-12-12-12-------12------12-12-12-12-|
G|-2/-----14^---------14^---------14^------14^----------------14^-----14^-------------|
D|------------------------------------------------------------------------------------|
A|------------------------------------------------------------------------------------|
E|------------------------------------------------------------------------------------|

E|--------12-12------9-(9)--9-----11----12----11-----9----9-9-9-----11----12----11-----9-|
B|--------12-12------9-(9)--9--9---9--9--9--9--9--9--9----9-9-9--9---9--9--9--9--9--9--9-|
G|-14^-14--------14^-----------------------------------11--------------------------------|
D|---------------------------------------------------------------------------------------|
A|---------------------------------------------------------------------------------------|
E|---------------------------------------------------------------------------------------|

E|------12-12--------12-12-12-------12-12------12-12-12-12----12-12----12-12----12-12----|
B|------12-12--------12-12-12-------12-12------12-12-12-12----12-12----12-12----12-12----|
G|-14^---------14^-------------14^---------14^-------------14^------14^------14^-----14^-|
D|---------------------------------------------------------------------------------------|
A|---------------------------------------------------------------------------------------|
E|---------------------------------------------------------------------------------------|

E|-12-12-------9-(9)--9-----11----12----11-----9-----9-9-9-----11----12----11-----9-9-|
B|-12-12-------9-(9)--9--9---9--9--9--9--9--9--9--9--9-9-9--9---9--9--9--9--9--9--9-9-|
G|-------14--------------------------------------------------------------------------|
D|------------------------------------------------------------------------------------|
A|------------------------------------------------------------------------------------|
E|------------------------------------------------------------------------------------|

w/riff A(2x)
E|-97--75--54--42--4--5--7--(7)----------------------------------------|
B|-97--75--54--42--4--5--7--(7)--12~~~~~~~~~~~-5---6---7---(7)--6---7--|
G|-------------------------------------------------7^--8^--9^--(9)--8^--9^-|
D|-------------------------------------------------------------------------|
A|-------------------------------------------------------------------------|
E|-------------------------------------------------------------------------|

outro
G5 A5 E5
E|-------------------------------------------------------------------|
B|--8---------------10-----------------------------------------------|
G|-10^--------------12^--------------7h9-----9-----9-----9-------7h9-|
D|-------------------------------------------------------------------|
A|-------------------------------------------------------------------|
E|-------------------------------------------------------------------|
not bad kids just stupid ones yeah thought we`d own the world an gettin`

G5 A5 E5
E|-------------------------------------------------------------------|
B|-------------------------------------------------------------------|
G|-------------------------------------8---------------10------------|
D|----9-7h9---9---9---9---9---9----9--10^--------------12^-----------|
A|-------------------------------------------------------------------|
E|-------------------------------------------------------------------|
used was havin` fun i said we`re not sad kids just lucid ones yeah

E5 G5 A5
E|--------------------------------------------------------------------------|
B|-17---------------17---------17-----------------8---------------------10--|
G|-19^--------------19^--------19^~~~~~~~--------10^--------------------12^-|
D|--------------------------------------------------------------------------|
A|--------------------------------------------------------------------------|
E|--------------------------------------------------------------------------|
flowin` through life not collectin` anyone so much out there still so much

E5 G5
E|-----------------------------------------------------------------------------|
B|-------------------5------------------------------------------------------8--|
G|-------------------7^----------------------------------------------------10^-|
D|-----------------------------------------------------------------------------|
A|-----------------------------------------------------------------------------|
E|-----------------------------------------------------------------------------|

to see time`s too much to handle time`s too much for me it drives me up the
A5 E5
E|-----------------------------------------------------------------------------------|
B|---------------------------10------17---17--17--17--17---17---17---17---20---(20)^-|
G|---------------------------12^-----19^--19^-19^-19^-19^--19^--19^--19^-------------|
D|-----------------------------------------------------------------------------------|
A|-----------------------------------------------------------------------------------|
E|-----------------------------------------------------------------------------------|

walls it drives me out of my mind can you tell me what this means huh?

Chords used:
B5 = x244xx D5 = x577xx
A5 = x022xx G5 = 355xxx
F#5 = 244xxx G#5 = 466xxx

------Zappp-----




Ваше мнение



Капча