Subject: guns n' roses tabs
Date: Sun, 26 Oct 1997 17:59:35 -0500
From: "David W. Iggulden"
Perfect crime
Guns N' Roses
Use your illusion 1
Intro:
Rhy.Fig.1(Gtr.1)
E|-----------------------------------|----| E|---------|
B|-8-------5^------------------------|----| B|---------|
G|-8-7--7--5^------------------------|-%--| G|-5--3--0-|
D|-----(7)---7-5-7-(7)-7-7-7-5h7-7-7-|-2x-| D|----3--0-|
A|-------------0-0-(0)-0-0-0-0---0-0-|----| A|---------|
E|-----------------------------------|----| E|---------|
Rhy.Fig.1A(Gtr.2)
E|-----------------------------------|----| E|---------|
B|-----------------------------------|----| B|-5--3--0-|
G|-8p7--5-5--------------------------|-%--| G|-5--3--0-|
D|-----------7-5-7-(7)-7-7-7-5h7-7-0-|-2x-| D|---------|
A|-----------------------------------|----| A|---------|
E|-----------------------------------|----| E|---------|
[1st verse]
[2nd verse]
1st chorus:
C5 Bb5 G5 A5 G5 Bb G5 A5 G5 C5 Bb5 G5
per - fect crime god damn it it's a per - fect crime
A5 G5 Bb G5 A5 G5 C5 Bb5 G5 A5 G5 Bb G5 A5 G5 C5 Bb5 G5
moth-er fuck-er it's a per - fect crime i said it's per - fect
[bridge]
2nd chorus:
C5 Bb5 G5 A5 G5 Bb G5 A5 G5 C5 Bb5 G5 A5 G5 Bb G5 A5 G5 C5
bad side of me don't fuck wit'da bad side o' me stay a - way from the bad
Bb5 G5 A5 G5 Bb G5 A5 G5 C5 Bb5 F5
side o' me don't fuck wit' da bad side
[half time]
Guitar solo:
E|-------------------------------------------------------------------------|
B|-20^r^r^~~~~~~~~~~~--17h20p17----17h20p17\16--t22p16--t24p16\17h20p17----|
G|------------------------------20--------------------------------------20-|
D|-------------------------------------------------------------------------|
A|-------------------------------------------------------------------------|
E|-------------------------------------------------------------------------|
E|----------------------------------20^--17-----------20^--17h20p17--20^-|
B|-17h20p17-----17h20p17-----17h19----------17h20p17---------------------|
G|----------20-----------20----------------------------------------------|
D|-----------------------------------------------------------------------|
A|-----------------------------------------------------------------------|
E|-----------------------------------------------------------------------|
E|-17--------20^--17-----20p17--20p17-19h20p19p17------19-19-17--19p17-----|
B|----20p17----------19----------------------------20-------------------20-|
G|-------------------------------------------------------------------------|
D|-------------------------------------------------------------------------|
A|-------------------------------------------------------------------------|
E|-------------------------------------------------------------------------|
E|-17----------------------------------------17----------------------------|
B|----20-19--20p19p17----------------17^^------r17--17p15-----17-15^-------|
G|---------------------19--17\16~~~------------------------16--------16p14-|
D|-------------------------------------------------------------------------|
A|-------------------------------------------------------------------------|
E|-------------------------------------------------------------------------|
E|-------------------------------------------------------------------------|
B|----------------------------------------------------------------------15-|
G|-16-16p14----14-----------------------------------14----16--16p14--------|
D|----------16----15p14-------------------------/16----16-----------16-----|
A|----------------------17-(17)/\/\/\/\/\--17\-----------------------------|
E|-------------------------------------------------------------------------|
E|-----------------------------------14-(14)---17p14-------17-17-17-17^--r-|
B|-15--------17-17p15---17--15--17-----------------------------------------|
G|----16p14-----------16--16--16--16--------16-------16-16-----------------|
D|-------------------------------------------------------------------------|
A|-------------------------------------------------------------------------|
E|-------------------------------------------------------------------------|
[3rd verse]
3rd chorus:
C5 Bb5 G5 A5 G5 Bb G5 A5 G5 C5
won't ya let me be moth-er fuck-er just let me be
A5 G5 Bb G5 A5 G5 C5 Bb5 G5 A5 G5 C5 G5
god damn it better let me be don't ya know ya better let me be
C5 Bb5 G5 A5 G5 Bb G5 A5 G5 C5 Bb5 G5
per - fect crime god damn it it's a per - fect crime
A5 G5 Bb G5 A5 G5 C5 Bb5 G5 A5 G5 Bb G5 A5 G5 C5 Bb5 G5
moth-er fuck-er it's a per - fect crime don't cha know it's a per - fect crime
Chords used:
E5 = x799xx G5 = x101212xx
A5 = x022xx C5 = x355x
G#5 = 466xxx Bb5 = x133xx
B5 = x244x C#5 = x466xx
D#5 = x688xx


Ваше мнение



Капча