*------------------------9-----------------6-7-8-9-------|
*------7-----------9/11------119--7---9-----------9--7--|
*---6----------------------------------------------------|
*--------------------------------------------------------|
*--------------------------------------------------------|
*--------------------------------------------------------|
*-------------6/7/8---------9--------7--------6-------64-|
*---9-----9-----------------------------------------------|
*------8------6/7/8----10-------8---------6-------6---64-|
*---------------------------------------------------------|
*---------------------------------------------------------|
*---------------------------------------------------------|
this is my first tab so be nice




Ваше мнение



Капча