Only Women Bleed
Guns N' Roses
Intro to Knockin' on heaven's door live
Tabbed by:     Nicolas Manel

Tune half step down
|------------------------------------------------------------------|
|----12----12----12------10----10----10------10----10----10------8-|
|------------------------------------------------------------------|
|--12----12----12------11----11----11------10----10----10------9---|
|------------------------------------------------------------------|
|------------------------------------------------------------------|

|------------------------10---------------10-----------------9----------|
|----8-----8--------12-----12--12-----12-----12---12-----10----10--10---|
|-----------------0-----------0-----0-----------0------0---------0------|
|--9-----9-----12------12--------12-----12----------11-----11--------11-|
|-----------------------------------------------------------------------|
|-----------------------------------------------------------------------|

|------9---------------8---------------8---------------7-----------|
|--10----10--10----10----10--10----10----10--10----8-----8---8-----|
|0---------0-----0---------0-----0---------0-----0---------0-----0-|
|----11--------10----10--------10----10--------9-----9---------9---|
|------------------------------------------------------------------|
|------------------------------------------------------------------|

|----7-----------------6---------------6---------------5-----------|
|8-----8---8-------8-----8---8-----8-----8---8-----6-----6---6-----|
|--------0-------0---------0-----0---------0-----0---------0-----0-|
|--9-----------8-----8---------8-----8---------7-----7---------7---|
|------------------------------------------------------------------|
|------------------------------------------------------------------|

                                               C
|----5---------------4---------------------------------------------|
|6-----6---6-----6-----6---6-----5-----4-----3-----------1---------|
|--------0-----0---------0-----------------------------0---0---0---|
|--7---------6-----6---------/-5---/-4---/-3---0-H-2---------2-----|
|----------------------------------------------------3-----------1-|
|------------------------------------------------------------------|

                             G
|----------------------------3-----|
|----------------------------3-----|
|--0-----0---0---------0-----0-----|
|3-----3---------------5-----0-----|
|----1-----1-----1-/-3-3-----2-----|
|----------------------------3-----|
 




Ваше мнение



Капча