November rain
Guns N` Roses
Use your illusion 1

Tabbed by: Stephen Iggulden
[email protected]

Fmaj7 Dm9 C Csus4 C
When I look in to your eyes i can see a love restrained

Fmaj7 Dm9 C Csus4 C
but darlin` when i hold you, don`t you know i feel the same?

Dm G C
nothing lasts for ever and we both know hearts can change

Dm G C
and it`s hard to hold a candle in the cold november rain

Fmaj7 Dm
we`ve been through this such a long long time just tryin` to kill the pain

C Csus4 C Fmaj7 Dm
oh_ yeah___ but lovers always come and lovers always go and no one`s

C Csus4 C
really sure who`s letting go today__ walking a way__

Fmaj7 Dm
if we could take the time to lay it on the line, i could rest my head

C Csus4 C Dm
just knowing that you were mine all mine

G C
so if you want to love me, then darlin` don`t refrain

Dm G C
or i`ll just end up walkin` in the cold november rain

F G
do you need sometime on your own

F G
do you need sometime all alone

F G
ooh, everybody needs sometime on their own

F G
ooh, don`t you know you need some time all alone

E5 F5 C5 E5 F5
i know it`s hard to keep an o-pen heart when even friends seem

D5 E5 F5 C5
E------------------------------------------------------------|
B---3-5-5br-3------------------------------------------------|
G--------------4br~~~----------------------------------------|
D------------------------------------------------------------|
A------------------------------------------------------------|
E------------------------------------------------------------|
out to harm you but if you could heal a broken heart

E-----------------|
B-----------------|
G|-/5~~~~-------4br~~~~--2--0-|
D-----------------|
A-----------------|
E-----------------|

E5 F5 G5
wouldn`t time be out to charm you woh_____________

Guitar solo 1:
E8-----------------------------8------------8~~~~~~-------|
B|-b8---r8b----8---r(8)p6--8brbr----r8b------r8--5br~~----------5brbr-|
G---------------------------------------------------------|
D---------------------------------------------------------|
A---------------------------------------------------------|
E---------------------------------------------------------|

E-------------------------------------------------------|
B|-5~~----------8------------------------8--------------------------|
G|-----7p5--7/9---97--5---b8-------r8b----8--r(8)p6--8brb-----r8b--|
D-------------------------------------------------------|
A-------------------------------------------------------|
E-------------------------------------------------------|

E|-8-8br---10b(hold)-8h10p8----8-------13p12-----13p12----13b---13~~~~--|
B---------------10---11b----------13-------13---------------|
G-----------------------------------------------------------|
D-----------------------------------------------------------|
A-----------------------------------------------------------|
E-----------------------------------------------------------|

E|----12--13-12h13p12---------12-13br-13-12-12b-12~~~-20--(20)~~~-|
B|-15-----------------15~~-15-------------------------------------|
G-----------------------------------------------------|
D-----------------------------------------------------|
A-----------------------------------------------------|
E-----------------------------------------------------|

E|-19-19--1917--1715--1513--13--1312--12--12h13p12-----12h13~~~|
B-------------------------------------------15---------|
G------------------------------------------------------|
D------------------------------------------------------|
A------------------------------------------------------|
E------------------------------------------------------|

E|-12-13-12h13p12--------12---------------------------------------------|
B-----15p13-----13---15h17p15-15-12h13-12h13p12--------12---|
G------------------------------------------------14p12------|
D-----------------------------------------------------------|
A-----------------------------------------------------------|
E-----------------------------------------------------------|

E--------------------------------------------------|
B|----10-----------------------------13~~~~--------------13~~~-|
G|-12----10--12--10--9~~~~--12p109-----------10h12p109-------|
D--------------------------------------------------|
A--------------------------------------------------|
E--------------------------------------------------|

E---------------15--------------------|
B--15b-------------r15---13-----(13)b-|
G|-10h12p109-------------------------------------|
D-------------------------------------|
A-------------------------------------|
E-------------------------------------| (end of solo 1)

F G F
E-----------------------------------------------|
B|-13-----------(13)b-------------------6-5-----------------|
G-----------------5h7p5----------5---------5h7--|
D------------------------7----------7-----------|
A-----------------------------------------------|
E-----------------------------------------------|
need some time on my own sometimes i need sometime all alone

G F G
E-------------------------------------------------------------|
B|------6b-------6p5----6---5---------------------------------------------|
G-----------------5-------------5h7-------------5h7p5---------|
D|-7-5---------------------------7----------------------7----------7------|
A-------------------------------------------------------------|
E-------------------------------------------------------------|
ooh, everybody needs sometime on their own ooh, don`t you know you

F G
E------------------------------------------------|
B|-6--5------------------------------------------------------|
G|------5---------------------7--9--10--12--14--16--17--19---|
D|--------7--------------------------------------------------|
A------------------------------------------------|
E------------------------------------------------|
need sometime all alone

Guitar solo 2:
E---------------------------20---------------20---------19b-|
B------------18~~~~~~-20b------r20-----(20)b----18-17~------|
G|-7-9-10-12-14-16-17-19------------------------------------------------|
D-----------------------------------------------------------|
A-----------------------------------------------------------|
E-----------------------------------------------------------|

w/Fill 2.
E-----------17--------------------------------------------------|
B|-17b-rb-r----17-18-20----18--20-17-18-20--17br-17-------------------------|
G|----------19--------------------------------------19brp17--19p17-----17---|
D-------------------------------------------------------19------|
A---------------------------------------------------------------|
E---------------------------------------------------------------|

E------------------------------------------------------------|
B|-20---------------20----------------20b--20--18h20p18p17--18-17h18p17--|
G|----17-17------17----17-17-17----17------------------------------------|
D19-----------------19---------------------------------------|
A------------------------------------------------------------|
E------------------------------------------------------------|

E-------------------------|
B|-----17------20---------------------|
G|-19-----19b------19---17~~~~--------|
D-------------------------|
A-------------------------|
E-------------------------| (end of solo 2)

Fmaj7 Dm C Csus4 C
and when your fears subside and shadows still remain oh_ yeah_

Fmaj7 Dm
i know that you can love me when there`s no one left to blame

C Csus4 C Dm
ah______________________________________
G C
so nevermind the darkness we still can find a way

Dm G C5 G/B
nothing lasts forever even cold november rain


G G G G G G

A5 G5 F5 G5 C5 G/B A5 G F5 G5 C5


C5
you`re not the only one you`re not the only one

G5 F5 Eb5
don`t ya think that you need somebody don`t ya think that you need someone

Ab5 Bb5
everybody needs somebody


(play the above part `til the end of song)


/-----------------------------------------------------------
| |
| Fill 2. |
| E|-12-13----12----------------------------------------| |
| B|-------15----13-15-12-13-----12---------------------| |
| G---------------14----12-14-10-12-9-10----| |
| D---------------------------------------9-| |
| A-----------------------------------------| |
| E-----------------------------------------| |
| |
-----------------------------------------------------------/

Notation:
~ = vibrato
b = bend
r = release




Ваше мнение



Капча