This is it, the 1OO% correct outro solo for November Rain
outro solo. You might want to tune your
guitar down 1/2 a step or it'll sound out of tune!
This would mean Eb, Bb, Gb, Db, Ab, Eb because it's easier for
the singer or something.
You'll have to go to page setup and change portrait to landscape.
Otherwise it prints wrong. It's in 4/4 and each section is a
bar so you might be surprised as to how much is in each bar.
If you can't get it to print right I'm sorry but this is the only
way I know how to do tabs. It does take some getting used to
because at the fast parts you have to play the notes fast and
continuous, you'll know what I mean. I'll include the rythem part
aswell, you want to get some doing the chords on an electric and
it'll sound complete! Anyway I'll shut up now and get on with it.
P.S. You will need to use your little finger/pinky a lot!
C5 XX G5 X F5 X X Eb5 X
/// FB
E--2O--------19----- 2O-|-(2O)-------2O--19--2O--15---------15--|
B-----------------------|----------------------------16---------|
G-----------------------|---------------------------------------|
D-----------------------|---------------------------------------|
A-----------------------|---------------------------------------|
E-----------------------|---------------------------------------|
Ab5 XX Bb5 XX
/// h p ////
E-16----151615------15----------15-|
B-----------------18---------18----|
G----------------------------------|
D----------------------------------|
A----------------------------------|
E----------------------------------|
C5 X X C5 X C5____C5 X C5 C5 C5 C5 Bb5/C
p
E---16---15--1615----------------15-------------------------------|
B------------------18-16----16-18----18-16-18-15-16--18-16-15-16--|
G------------------------17---------------------------------------|
D-----------------------------------------------------------------|
A-----------------------------------------------------------------|
E-----------------------------------------------------------------|
C5 X X C5 X C5_C5 C5 C5__C5 C5 C5 C5 C5
HB +r HB +r ///////
E-----------------------------------------------------------------|
B---15-----------------15--16--18--15--16--18---15----------------|
G------------------17-------------------------------17------------|
D-----------------------------------------------------------------|
A-----------------------------------------------------------------|
E-----------------------------------------------------------------|
C5 X X G5 X X F5 X Eb5 X X
////// FB
E-2O-----------------19----------2O-|-(2O)---2O--19--2O--15------15-|
B-----------------------------------|------------------------16-----|
G-----------------------------------|-------------------------------|
D-----------------------------------|-------------------------------|
A-----------------------------------|-------------------------------|
E-----------------------------------|-------------------------------|
X X Ab5 X X Bb5 X X
/// h p ///
E--16-----151615----15---------------|
B-----------------18-------15-16-18--|
G------------------------------------|
D------------------------------------|
A------------------------------------|
E------------------------------------|
C5 X X C5 X C5___C5 X C5 C5_____________
h p p p p h
E-15-16-151615------15-----15---------------------15-1615----15------|
B-------------18-16---16-18--1816-18-16--15-16-18--------1816---1618-|
G--------------------------------------17----------------------------|
D--------------------------------------------------------------------|
A--------------------------------------------------------------------|
E--------------------------------------------------------------------|
C5 C5 C5_______________C5 C5 C5
p h p h p //////
E-15-----------------------------------------------------------------|
B---18-16----15-16-18-15----16-15------------------------------------|
G---------17-------------17-------17-15-17--151315131513-------------|
D---------------------------------------------------------12---------|
A--------------------------------------------------------------------|
E--------------------------------------------------------------------|
C5 X X X X G5 X X F5 X X Eb5
/////// FB HB
E---2O-------------19-------------2O-|-(2O)---2O--19-------------15--|
B------------------------------------|----------------15-----------17|
G------------------------------------|-------------------------------|
D------------------------------------|-------------------------------|
A------------------------------------|-------------------------------|
E------------------------------------|-------------------------------|
X X Ab5 X X Bb5 C5 X X C5 X C5____C5 C5 C5 C5
HB FB /////
E---------------------------------|-----2O-(2O)-------2O-15-2O-19-2O-|
B--15-------15------18---------16-|---16-----------------------------|
G---------------17----------------|-17-------------------------------|
D---------------------------------|----------------------------------|
A---------------------------------|----------------------------------|
E---------------------------------|----------------------------------|
N/C ( let previous C5 ring through )
p
E--15--18-16-18-15-1615-------15---------15------15------15-----|
B-------------------------18------16-18------16------16------16-|
G---------------------------------------------------------------|
D---------------------------------------------------------------|
A---------------------------------------------------------------|
E---------------------------------------------------------------|
C5 X X G5 X F5 Eb5
////// FB
E--2O----------------19----------2O--|-(2O)----2O--19--2O--15----15-|
B------------------------------------|------------------------16----|
G------------------------------------|------------------------------|
D------------------------------------|------------------------------|
A------------------------------------|------------------------------|
E------------------------------------|------------------------------|
Ab5 Bb5 X C5 X C5_C5 X C5_C5_____
//// h p ///// FB+r+FB/// //
E--16------151615---15------------15-|--18--(18)-------15---15------|
B----------------18------------18----|-------------------16---16----|
G------------------------------------|---------------------------17-|
D------------------------------------|------------------------------|
A------------------------------------|------------------------------|
E------------------------------------|------------------------------|
_C5 C5 C5 X C5___C5 X C5_____C5
///
E-----------------------------------------------------------------|
B-----------------------------------------------------------------|
G--(17)--15-17---17-15--------------------------------------------|
D-----------------------17--16----15--15---15---13---15--13-------|
A--------------------------------------------------------------15-|
E-----------------------------------------------------------------|
X X X X C5 G5 X X X X F5 Eb5
///// FB
E--2O-------------19---------2O-|-(2O)----2O--19--2O--15------15-|
B-------------------------------|-------------------------16-----|
G-------------------------------|--------------------------------|
D-------------------------------|--------------------------------|
A-------------------------------|--------------------------------|
E-------------------------------|--------------------------------|
Ab5 X X Bb5
//// h p ////
E--16------151615---15---------15-|
B----------------18---------18----|
G---------------------------------|
D---------------------------------|
A---------------------------------|
E---------------------------------|
X C5 C5 X C5__C5 X C5____C5_________
h h h h h h p p h p FB+r
E--151618--151618--1516181615------16------151615-------15-----|
B------------------------------18------18-----------18------18-|
G--------------------------------------------------------------|
D--------------------------------------------------------------|
A--------------------------------------------------------------|
E--------------------------------------------------------------|
___C5 C5 C5 X C5___C5 X C5__C5
HB +r//// HB +r//
E------------------------------15--(15)----(15)-----------------|
B--16-------18-----16--18--16-----------------------15-----(15)-|
G------17-------------------------------------------------------|
D---------------------------------------------------------------|
A---------------------------------------------------------------|
E---------------------------------------------------------------|
C5 G5 F5 Eb5
///// FB
E--2O--------------19--------2O-|-(2O)---2O--19----2O--15------15-|
B-------------------------------|--------------------------16-----|
G-------------------------------|---------------------------------|
D-------------------------------|---------------------------------|
A-------------------------------|---------------------------------|
E-------------------------------|---------------------------------|
w/rain effects
Ab5 Bb5 C5 ( let ring through )
//// FB +r HB+r //////
E--16------15-----------------------|----------------------------|
B------------18-16--18-----------16-|--15-----------(15)---------|
G-----------------------------------|----------------------------|
D-----------------------------------|----------------------------|
A-----------------------------------|----------------------------|
E-----------------------------------|----------------------------|
Fdbk
//////// HB
E------------------------------------|
B--(15)-------------(15)-------------|
G------------------------------------|
D------------------------------------|
A------------------------------------|
E------------------------------------|
Key
X= muted chord ( percussion effect )
///=vibrato
FB=full bend
HB=half bend
PB=pre-bent
+r=and release
()=ghost note ( not picked )
h=hammer-on
p=pull off
___=tie ( for example C5__C5, chord is held )
N/C=no chord
Fdbk=feedback
If I've missed anything off the key or you want to know a chord
or want to ask anything at all just E-Mail me on
[email protected]
or you can contact me on GTU, I'm kkkkkkkkkkkkkkk!




Ваше мнение



Капча