Guns n` Roses
Bass tab for November Rain

Listen for correct timing.

Tune down 1/2 step

1.
Gb------------------------I
Db-3----2--0--------------I
Ab--------------3------3--I
Eb-------------------3----I

2.
Gb-----------0-0-0-0-0---------------------I
Db-0-0-0-0-0-------------------------------I
Ab---------------------3-3-3-3-3-3-3-3-3-3-I
Eb-----------------------------------------I

3.
Gb------------------------------------------I
Db-0-0-0-0-0--------------------------------I
Ab----------------------3-3-3-3-3-3-3-3-3-3-I
Eb------------3-3-3-3-3---------------------I

4.
Gb--------------------------------------I
Db-2-2--3-3-----------2-2--3-3--0-0-0-0-I
Ab-----------3-3-3-3--------------------I
Eb--------------------------------------I

5.
Gb------------------------------0-0-0-0-0-0-0-0-I
Db-2-2--3-3-----------2-2--3-3------------------I
Ab-----------3-3-3-3----------------------------I
Eb----------------------------------------------I

6.
Gb-------------------------------------------I
Db-3-3-3-3--2---0-0-0-0----------------------I
Ab-----------------------3-3-3-3-3-3-3-3-3-3-I
Eb-------------------------------------------I

7.
Gb------------0-0-0-0-0----------------------I
Db-0-0-0-0-0---------------------------------I
Ab-------------------------------------------I
Eb-----------------------3-3-3-3-3-3-3-3-3-3-I

8.
Gb-0-0-0-0-0-0-0-0-0-0-0-0-0-0-0-0--I
Db----------------------------------I
Ab----------------------------------I
Eb----------------------------------I

9.
Gb--------0--0-------------------I
Db--0--0-------------------0--0--I
Ab---------------3------3--------I
Eb-------------------3-----------I

10.
Gb-5-5--4-4--2-2--0-0-----------0-0-0-0-0-0-0-0--I
Db--------------------3-3-3-3-3------------------I
Ab-----------------------------------------------I
Eb-----------------------------------------------I

11.
Gb-5----5-5--3--5-5--1-1--3-3-3-3-3--I
Db-----------------------------------I
Ab-----------------------------------I
Eb-----------------------------------I

12.
Gb-5-5--3--5-5---1-1--3-3-3-3-3-I
Db------------------------------I
Ab------------------------------I
Eb------------------------------I

13.
Gb-5-5-5--0-0-0----------------1-1-1--3-3-3---5-5-5-5-5-5-5-5-5-5-5-5-5-5-5-I
Db---------------3-3-3--1-1-1-----------------------------------------------I
Ab--------------------------------------------------------------------------I
Eb--------------------------------------------------------------------------I

14.
Gb-0-0-0----------------1-1-1--3-3-3--5-5-5-5-5-5-5-5-5-5-5-5-5-5-5-I
Db--------3-3-3--1-1-1----------------------------------------------I
Ab------------------------------------------------------------------I
Eb------------------------------------------------------------------I

15.
Gb-0-0-0----------------1-1-1--3-3-3--5--I
Db--------3-3-3--1-1-1-------------------I
Ab---------------------------------------I
Eb---------------------------------------I


Play parts :

1. (x 2)
2.
3.
1.
3.
Guitar Only Bit
4. (You know it`s hard..)
5.
6. (x 2)
7. (x 2)
Guitar Only Bit
8.
6. (x 2)
1. (x 2)
9.
10. (x 2)
11.
12. (x 2)
13.
14. (x 4)
15.




Ваше мнение



Капча