Guitar solo 2:
E|--------------------------------------20---------------20---------19b-|
B|-----------------------18~~~~~~-20b------r20-----(20)b----18-17~------|
G|-7-9-10-12-14-16-17-19------------------------------------------------|
D|----------------------------------------------------------------------|
A|----------------------------------------------------------------------|
E|----------------------------------------------------------------------|

w/Fill 2.
E|----------------------17--------------------------------------------------|
B|-17b-rb-r----17-18-20----18--20-17-18-20--17br-17-------------------------|
G|----------19--------------------------------------19brp17--19p17-----17---|
D|------------------------------------------------------------------19------|
A|--------------------------------------------------------------------------|
E|--------------------------------------------------------------------------|

E|-----------------------------------------------------------------------|
B|-20---------------20----------------20b--20--18h20p18p17--18-17h18p17--|
G|----17-17------17----17-17-17----17------------------------------------|
D|-----------19-----------------19---------------------------------------|
A|-----------------------------------------------------------------------|
E|-----------------------------------------------------------------------|

E|------------------------------------|
B|-----17------20---------------------|
G|-19-----19b------19---17~~~~--------|
D|------------------------------------|
A|------------------------------------|
E|------------------------------------| (end of solo 2)




Ваше мнение



Капча