Subject: guns n' roses tabs
Date: Sun, 26 Oct 1997 17:59:35 -0500
From: "David W. Iggulden"

nice boys
gnr
intro
e-----------------------------------------------------------------------
b-/16-16-16-16-16--------------14------14---------------9------9--------
g-/16-16-16-16----16---------------14------14---------9---9------8/9----
d-/16-16-16-16-------16\--/14-----------------14\--/9-------9---------9-
a-----------------------------------------------------------------------
e-----------------------------------------------------------------------
e---------------------------------------------------------------------------
b-9--9--------/16-16-16-16--------------/14-14-14-14-----------20/21--------
g-9--9--8/9---/16-16-16-16----16--------/14-14-14-14--14-------------21-----
d-------------/16-16-16-16-------16\----/14-14-14-14------14/-----------21\-
a---------------------------------------------------------------------------
e---------------------------------------------------------------------------
e----------------------------------------------------------------
b-20/21---------/16-16-16-16--------------/14-14-14-14-----------
g-------21------/16-16-16-16----16--------/14-14-14-14--14-------
d----------21\--/16-16-16-16-------16\----/14-14-14-14------14/--
a----------------------------------------------------------------
e----------------------------------------------------------------
e-----------------9\7-(7)\----------------------------------------------------------------
b-------9-(9)\-------------9\7---7/9--/16-16-16-16------------/14-------14-14----21-21~~~-
g-9\7----------9---------------9------/16-16-16-16----16------/14-14-------14-------------
d-----9-------------------------------/16-16-16-16-------16\--/14----14----14/21----------
a-----------------------------------------------------------------------------------------
e-----------------------------------------------------------------------------------------
verse 1,2,3
B5 A5 E5 A5 B5
she hit town like a rose in bloom, smellin sweet said sweet perfume
A5 E5 A5 D
the colour faded and the petals died,down in the city no one cried
E5(7) E E5(7) E
in the streets the garbage lies protected by a million flies
B5 A5 E5
the roaches so big you know that they got bones
E6 E E5 E6 E E5 E6 E5
theY moved in and made a tenement home
CHORUS:
A5 B5 A5 B A B A A
i said nice boys don't play rock and roll
B5 A5 E5
nice boys don't play rock and roll i'm not a nice boy
A5 B5 A5 B A B A A
i said nice boys don't play rock and roll
B5 A5 E5
nice boys don't play rock and roll i'm not a nice boy and i never was
[VERSE 2]
[CHORUS]
slide guitar solo
e------------------------------------------------------------------------------
b------------------------------------------------------------------------------
g-16\14--------14~~~-14-------14\13-------14--14-------------------------------
d-------14/16-----------14-14-------13/14--------14-14-14\12-------14-14-------
a------------------------------------------------------------12/14-------14-14-
e------------------------------------------------------------------------------
e--------------------------------------------------------------------------
b-8/9----9-(9)/--------------16---------------------14------------------21-
g-8/9--9--------16\14-----------16-----14\13-----------14------------21-21-
d---------------------14/16--------16\-------13/14--------14\--14/21-------
a--------------------------------------------------------------------------
e--------------------------------------------------------------------------
e-----------------------------------------------------------------------
b----------19/21---------------17/18--(18)/(19)-------16-(16)/17--19/21-
g-21----21-------21------19/20------------------17/18-------------------
d----21-------------21\-------------------------------------------------
a-----------------------------------------------------------------------
e-----------------------------------------------------------------------
e------------------24--24\-------------------17-------/19/24--(24)~~~~~-
b---------------------------/16/19-19\-16/17-----17\------24--(24)------
g-21--------------------------------------------------------------------
d----21\19/21/x/--------------------------------------------------------
a-----------------------------------------------------------------------
e-----------------------------------------------------------------------
[verse 3]
[chorus] 3x




Ваше мнение



Капча