Move to the city
Guns N` Roses
GN`R Lies
 

 Intro: Gtr.1
------------12-(12)----------------------12-(12)-|
|-x---x--x-x--x---x-x-x-12-(12)---14qb-12-14qb-12-14-12-(12)-|
|-x---x--x-x--x---x-x-x-12-(12)---14qb-12-14qb-12-14---------|
-------------------------------------------------|
-------------------------------------------------|
-------------------------------------------------|



----------12--(12)------------------------------------12-(12)--|
|-14qbp12-14qbp12-14--12--(12)-14-12-14qb-12-14-12--12--12--x--x--12-(12)--|
|-14qbp12-14qbp12-14-----------14-12-14qb-12-14-12--12--12--x--x--12-(12)--|
---------------------------------------------------------------|
---------------------------------------------------------------|
---------------------------------------------------------------|



----------12-(12)----------------------12---(12)--|
|--14qb-12-14qb-12-14-12-(12)--14qbp12-14qbp12-14--12---(12)--|
|--14qb-12-14qb-12-14----------14qbp12-14qbp12-14-------------|
--------------------------------------------------|
--------------------------------------------------|
--------------------------------------------------|



-------------------------------------12-(12)-12------------12-(12)-|
|-14qb-12-14qb-12-14p12-14hb-(14)-------rbp12-14-12-(12)-12-14-x-12-14-12-(12)-|
|-14qb-12-14qb-12-14p12-14fb-(14)-------rbp12-14-12-(12)----14-x-12-14-12-(12)-|
-------------------------------------------------------------------|
-------------------------------------------------------------------|
-------------------------------------------------------------------|



-----------12-(12)----------------------------------12-(12)-|
|-14qbp12-14qb-12-14qb-12-(12)-14-12-14qb-12-14-12--12--12--x-x-12-(12)-|
|-14qbp12-14qb-12-14qb---------14-12-14qb-12-14-12--12--12--x-x-12-(12)-|
------------------------------------------------------------|
------------------------------------------------------------|
------------------------------------------------------------|



------------12-(12)------------------12-14-12--12-(12)---------------|
|----14qb-12-14qb-12-14-12-(12)-14-12-14qb-12-14-12----12--12-(12)---0-3p2p0-----|
|----14qb-12-14qb-12-14---------14-12-14qb-12-14------------------------------2p0-|
----------------------------------------------------------------------|
----------------------------------------------------------------------|
----------------------------------------------------------------------|



----------------------------------------------------------------------------|
--------9-9-----9-9----10-9--9-9--------------------------------------------|
--------9-9-x-x-9-9-x-x-9-9--9-9--7-(7)-7-7-6--6-6-4-(4)-4-4---7--7-8-9-(9)-|
|-0-2p0-------------9-9-x-x-9-9-x-x-9-9--9-9--7-(7)-7-7-6--6-6-4-(4)-4-4---7--7-8-9-(9)-|
|-------0-----------7-7-x-x-7-7-x-x-7-7--7-7--5-(5)-5-5-4--4-4-2-(2)-2-2---5--5-6-7-(7)-|
|---------3qb-0-(0)---------------------------------------------------------------------|



-------------------------------------------------------------|
|-----9-------9-9-(9)---9-9-9-9------------------------------------------|
|-----9-------9-9-(9)---9-9-9-9----7-(7)-7-7-6--6-6-4-(4)-4-4---7--7-8-9-|
|-x-x-9--x-x--9-9-(9)-x-9-9-9-9----7-(7)-7-7-6--6-6-4-(4)-4-4---7--7-8-9-|
|-x-x-7--x-x--7-7-(7)-x-7-7-7-7----5-(5)-5-5-4--4-4-2-(2)-2-2---5--5-6-7-|
-------------------------------------------------------------|
                                                           trem.bar
 Guitar solo:                                                     2 1/2
----------------2-------2------------------------/--------------------------|
--------------2---2-5fb---5-2-4hb---------------/----/---------------------|
|-4fb(slow bend)--4fb-(4)-----------------4hb--4fb-----(4)-------4---4hbrp2-4fb-2-(2)~~~-|
-----------------------------------------------------------------------------|
-----------------------------------------------------------------------------|
-----------------------------------------------------------------------------|



-------------------------------------------------------------------------|
-------------------------------------------------------------------------|
|-2-4p2------------------------------------------------------------------------16----|
|-------2--4p2---4----2-----2-------4-----------2/4--(4)~~~~-4----14-16p14-16----16-|
---4----3---3h4----3p2----42----------------------/16-------------------|
-------------------------------5-2---------------------------------------|



-14-----------14-----------------------|
|---------14----14--17fb-----17-14----------17fbr--|
|-14-16fb--------------------------16fbr-14--------|
---------------------------------------|
---------------------------------------|
---------------------------------------|
 
-Zapppp----




Ваше мнение



Капча