ESTA ES LA NUEVA CANCION DE LOS GUNS AND ROSES MADAGASCAR... SON ALGUNOS PEDAZOS PUES
NO HE PODIDO SACAR TODO....rilash [email protected]
INTRO:
e: ----------------------------------------------------------------|
B: ----------------------------------------------------------------|
G: -----5--5--5--8--9--8--7--5-6-5---------------------------------|
D: ----------------------------------------------------------------|
A: -----6--6--6--6--6--5--5--5-5-5---------------------------------|
E: ----------------------------------------------------------------|
e: ----------------------------------------------------------------|
B: ----------------------------------------------------------------|
G: -----5--5--5--8--9--8--7--5-6-5---------------------------------|
D: ----------------------------------------------------------------|
A: -----6--6--6--6--6--5--5--5-5-5---------------------------------|
E: ----------------------------------------------------------------|
e: ----------------------------------------------------------------|
B: ----------------------------------------------------------------|
G: -----5--5--5--8--9--8--7--5-6-5---------------------------------|
D: ----------------------------------------------------------------|
A: -----6--6--6--6--6--5--5--5-5-5---------------------------------|
E: ----------------------------------------------------------------|
e: ----------------------------------------------------------------|
B: ----------------------------------------------------------------|
G: -----5--7--5-6--5--7--5-6--5------------------------------------|
D: ----------------------------------------------------------------|
A: -----6--6--6-5--6--6--6-5--5------------------------------------|
E: ----------------------------------------------------------------|
A
I won't be told anymore
A
That I've been brought down in this storm
A
And left so far out from the shore
A
That I can't find my way back, my way anymore
A
No I won't be told anymore
A
That I've been brought back in this storm
A
And left so far out from the shore
A
That I can't find my way back, my way anymore
A
No, I..
A
No, I...
RIFF no. 1
e:-------------------|
B:-1213/12--10------|
G:-------------------|
D:-------------------|
A:-------------------|
E:-------------------|
A
Forgive that they teared down my soul
A
Bless them that they might grow old
A
A dream that's forgotten may know
A
That it's never too late
e:---------------------------------------|
B:-12/14-14-12---11/13-1312--12--10--12-|
G:---------------------------------------|
D:---------------------------------------|
A:---------------------------------------|
E:---------------------------------------|
A
So many times that I've seen life before me
A
I searched and found the way to choose to the end
A
I found a way, to know, why it had to be
A
Mired in denial and saw all the rain
e:-------------------|
B:-1213/12--10------|
G:-------------------|
D:-------------------|
A:-------------------|
E:-------------------|
A
If we ever find it true
e:-------------------|
B:-1213/12--10------|
G:-------------------|
D:-------------------|
A:-------------------|
E:-------------------|
A
Love will have its way to choose
e:-------------------|
B:-1213/12--10------|
G:-------------------|
D:-------------------|
A:-------------------|
E:-------------------|
A
Three more to tame
e:-------------------|
B:-1112/11--9-------|
G:-------------------|
D:-------------------|
A:-------------------|
E:-------------------|
A
We can be ever
e:---------------------------|
B:-1213/12--10--1213/12----|
G:---------------------------|
D:---------------------------|
A:------------------------10-|
E:---------------------------|
SOLO
ESTO ES EL PRINCIPIO DEL SOLO
ESTA PARTE ES CON DISTORSION
e:-5-5-5-5-5-5-5-5-5-5-5-5-5-5-5-5-5-5-5-5-5-5-|
B:-5-5-5-5-5-5-5-5-5-5-5-5-5-5-5-5-5-5-5-5-5-5-|
G:-6-6-6-6-6-6-6-6-6-6-6-6-6-6-6-6-6-6-6-6-6-6-|
D:-7-7-7-7-7-7-7-7-7-7-7-7-7-7-7-7-7-7-7-7-7-7-|
A:-7-7-7-7-7-7-7-7-7-7-7-7-7-7-7-7-7-7-7-7-7-7-|
E:-5-5-5-5-5-5-5-5-5-5-5-5-5-5-5-5-5-5-5-5-5-5-|
INTRO
A RIFF no. 1 S
I won't be told anymore O
A RIFF no. 1 L
That I've been brought down in this storm O
A RIFF no. 1
And left so far out from the shore I
A RIFF no. 1 RIFF no. 1 M
And I can't find my way back, my way anymore P
R
A INTRO RIFF no. 1 O
I won't be told anymore V
A RIFF no. 1 I
That I've been brought down in this storm S
A RIFF no. 1 A
And left so far out from the shore D
A RIFF no. 1 RIFF no. 1 O
And I can't find my way back, my way anymore oh no
OUTRO
A
e: ----------------------------------------------------------------|
B: ----------------------------------------------------------------|
G: -5--5--8--9--8--7--5-6-5--5-------------------------------------|
D: ----------------------------------------------------------------|
A: -5--6--6--6--5--5--5-5-5--6-------------------------------------|
E: ----------------------------------------------------------------|
e: ----------------------------------------------------------------|
B: ----------------------------------------------------------------|
G: -9-9--8--7--5-6-5---5----5--------------------------------------|
D: ----------------------------------------------------------------|
A: --------------------6----6--------------------------------------|
E: ----------------------------------------------------------------|
ESTA ES TODA LA CANCION TODAVIA FALTAN LOS SOLO PERO SI ES BUENA PARTE DE LA CANCION
ESTA CANCION SE LA DEDICO A MI NOVIA... MANUELA ADIOS ESPERO QUE LES GUSTE Y...
ARRIBA LOS GUNS N? ROSES




Ваше мнение



Капча