intro
-------------------------------------|
-------------------------------------|
-------------------------------------|
-------------------------------------|
|-0-0---0-0---0-0---|-0---0-0---0-0-0---0-----|-0---0-0---0-0-0---0-0----|
|-----3-----3-----2-|---2-----2-------2---3-5-|---3-----3-------0-----2--|


-------------------------------------|
-------------------------------------|
-------------5-|-2-------------------------------|
-------------5-|-2-------------------------------|
|-0---0-0---0-0-0---0------|---0-0-0---0-0-0---0-----|0---0-0---0-0------|
|---2-----2-------2---3----|---------3-------3---0-2-|--2-----2-----3-2-0|


--------|----------------------------|
--------|----------------------------|
|-7h9--7h9-7---7--9-|-----|-----|-9--7h9---------------------------------|
|-7h9--7h9-7---7--9-|--s--|--s--|-9--7h9---5----5------------------------|
|-7----7---7---7--7-|-----|-----|-7--7-----5----5------------------------|
--------|-----|-----|----------3----3------------------------|



One in a Million

Acoustic guitar..

[E-1] [E-2] [D] [C#] [C]
EADGBE EADGBE EADGBE EADGBE EADGBE
022100 x7990x x5770x x4660x x355xx


Beginning of song..

Strum

[E-1] (slide) [E-2] [D] [C#] (play twice)
| | | |||| / || | | |||| || | | |||| || | | ||||

[C]
|| | | |||||||||||||||
^
(slow distortion comes in)

second guitar...comes in after acoustic finishes.


------------------------------------------------------
-------|-2-2h3p2-2-2---1-1----------------------------------------
-5-5-5-|-2-2-----2-2-2-0-0-0-0-3p0---0-0-0-0-----4-0--------------
-5-5-5-|-2-2h4p2-2-2-2-2-2-2-2-2---2-0-0-0-0---3---0--------------
-3-3-3-----3-3-3-3-3---3-2-2-2-2-2-------3---3---3/5--
-------------------------3-3-----3-------1-0-1-0-1/3--
(fill) (Main guitar riff)

^ ^ ^ ^ ^ ^ ^ ^ ^ ^
^(accented notes)


play it over and over until you`re fingers bleed


(this is distorted guitar..light distortion)



that was how I played it....I don`t know if it`s right or not..




Ваше мнение



Капча