tab by: andres varGas Colombia
Guns N' Roses -- Knocking On Heavens Door
Mama take this badge from me
I can't used it anymore
It's getting dark to dark to see
Feels like I'm knocking on heavens door
Knock knock knocking on heavens door
Knock knock knocking on heavens door
Knock knock knocking on heavens door
Knock knock knocking on heavens door
Solo:
Mama put my guns in the ground
I can't shoot them any more
That cold black cloud is coming down
Feels like I'm knocking on heavens door
Solo:
Knock knock knocking on heavens door
Knock knock knocking on heavens door
Knock knock knocking on heavens door
Knock knock knocking on heavens door

First Solo:
D#-------------------------------------------------------------------------------
A#-----------------15---------------------15/17-15~-13P12-13/15-13P12-13-12------
F#--12--14B--12--14--14B-12-12~--------12----------------------------------------
C#-------------------------------12/14--------------------------------------14~--
G#-------------------------------------------------------------------------------
D#-------------------------------------------------------------------------------
D#-------14------------15-17B-17B-(17B)-17B-15~--22B-20-19-20-19-22B-20-19-20-19-
A#-12H13---13-12--14/17----------------------------------------------------------
F#-------------------------------------------------------------------------------
C#-------------------------------------------------------------------------------
G#-------------------------------------------------------------------------------
D#-------------------------------------------------------------------------------
D#-------------------------------------------------------------------------------
A#--17~--15B(15B)----------------------------------------------------------------
F#----------------14B(14B)--12-12~-----------------------------------------------
C#-------------------------------------------------------------------------------
G#-------------------------------------------------------------------------------
D#-------------------------------------------------------------------------------
Second Solo:

D#-------13-15-14b-----14~~--14b---------12-14-12---------------15---------15----
A#-13--13---------------------------------------------15b-15--------15b----------
F#---12--------------------------------------------------------------------------
C#-------------------------------------------------------------------------------
G#-------------------------------------------------------------------------------
D#-------------------------------------------------------------------------------
D#---------------------------15-------------------------15-----------------------
A#-15b---------13-15-----------15-------------------------15--15-------15--------
F#-------------------14b---------14b---------12--14~----------14b------14b-------
C#-------------------------------------------------------------------------------
G#-------------------------------------------------------------------------------
D#-------------------------------------------------------------------------------
D#-----------------15---17b-17b-----15-17-15---20-19-20b-------20-19--20-20b-----
A#---------------15--15----------------------------------------------------------
F#-12~~--14sl 16-----------------------------------------------------------------
C#-------------------------------------------------------------------------------
G#-------------------------------------------------------------------------------
D#-------------------------------------------------------------------------------
D#------20-19-20-22b-----22-----------------22-----------------------------------
A#-----------------------------------20-22b-----22b--20---b22-22~~----20-22-20---
F#-------------------------------------------------------------------------------
C#-------------------------------------------------------------------------------
G#-------------------------------------------------------------------------------
D#-------------------------------------------------------------------------------
D#---------15--------------------------------15---15-----------------------------
A#-19b-------19~~--19b-----------17-19p17-17---17b--17-15---15-------------------
F#-------------------------------------------------------17---16b----16b---------
C#-------------------------------------------------------------------------------
G#-------------------------------------------------------------------------------
D#-------------------------------------------------------------------------------
D#-------------------------------------------------------------------------------
A#-------------------------------------------------------------------------------
F#-------/--12-11-11b--9---sl 7--5p4--------------------------------------------
C#------------------------------------------5~~~~--------------------------------
G#-------------------------------------------------------------------------------
D#-------------------------------------------------------------------------------




Ваше мнение



Капча