Guns n roses knocking on heavens door solos
This is the solos which slash played in the CD coz he usually plays
different solos in concerts !!!
And I think this is the right way to play the solos ...!
Tune the guitar this way becoz I think he was playing it that way , I played in
the same time with him and it was perfect , if u dont want to tune it its ok it wont matter !
E = D#
A = G#
D = C#
g = f#
b = a#
e = d#
NOTE:
H - hammer-on
/ - slide
P - pull-off
^^ - full bend
1st solo :
----------------10--------------------------12---10--8p7--8--10--8p7-8p7-----
--8--10^^p8-h10----10^^-p8-8-----8-------------------------------------------
---------------------------------------9---------------------------------9---
-----------------------------------------------------------------------------
-----------------------------------------------------------------------------
-----------------------------------------------------------------------------
-------12-15-12---12-15-19-17-19-19-15--22-20p19-20p19-22-20p19-20-20--------
----12----------12--------------------------------------------------17-------
-----------------------------------------------------------------------------
-----------------------------------------------------------------------------
-----------------------------------------------------------------------------
-----------------------------------------------------------------------------
-----------------------------------------------------------------------------
----15^^15^^-----------------------------------------------------------------
-------------14^^14^^--12-12-------------------------------------------------
-----------------------------------------------------------------------------
-----------------------------------------------------------------------------
-----------------------------------------------------------------------------

2nd solo :
------------------------------------------------------------------12---------
---19^^-19-19--^^--19--17--19p17-17---20p17---20p17------------------12------
----------------------------------------------------19p17--19p16-------------
-----------------------------------------------------------------------------
-----------------------------------------------------------------------------
-----------------------------------------------------------------------------
----------------15-----------------------15-----19---17p15--17p15------------
------------------15-----------------------15--------------------------------
----16p14/12-14------16/12--12---12-/-16-------------------------------------
-----------------------------------------------------------------------------
-----------------------------------------------------------------------------
-----------------------------------------------------------------------------
----20p19-20/22---20p19-20/22---20p19--20-22^^-22------------22--------------
--------------------------------------------------20-22^^----22^^-22p20------
-----------------------------------------------------------------------------
-----------------------------------------------------------------------------
-----------------------------------------------------------------------------
-----------------------------------------------------------------------------
-----------------------------------------------------------------------------
--22^^-22p20---22^^-22p20---20--19-19h20p19/17-19p17-17--20-p17-20p17--------
-----------------------------------------------------------------------------
-----------------------------------------------------------------------------
-----------------------------------------------------------------------------
-----------------------------------------------------------------------------
----------------------------------------------------------------------------
----------------------------------------------------------------------------
----19p17--19p16------------------------------------------------------------
------------------17--16-16^^/14---12--9^^----------------------------------
--------------------------------------------10------------------------------
----------------------------------------------------------------------------

that's all I hope u liked it , if u don't know how to play it , try to play it with the song
if u have any suggestions or notes please e mail me on [email protected]




Ваше мнение



Капча