This is the first solo after ther second verse
e|---------------------------------------------------------|
B|----------------------15------------------------14~~16---|
G|---12--14^14--12--14------14^--12--12--------------------|
D|---------------------------------------14--12------------|
A|---------------------------------------------------------|
E|---------------------------------------------------------|
e|----------------------------------------------15---------|
B|-13--12--13~~15--13--12-13--12--------12--13-----13--12--|
G|---------------------------------------------------------|
D|--------------------------------14-----------------------|
A|---------------------------------------------------------|
E|---------------------------------------------------------|
e|-----------17^-17^--17^17--15--20-20^-19-20^--19-20-----|
B|-12~~15-------------------------------------------------|
G|--------------------------------------------------------|
D|--------------------------------------------------------|
A|--------------------------------------------------------|
E|--------------------------------------------------------|
e|--20--20--20--------------------------------------------|
B|-------------17--------15-------------------------------|
G|---------------------------14-----12--12----------------|
D|--------------------------------------------------------|
A|--------------------------------------------------------|
E|--------------------------------------------------------|




Ваше мнение



Капча