Song: Jonny Came Marching Home (GNR Tribute)
Artist: Guns N' Roses
Submited by: Jake Livingston ([email protected])

Slow and clean. Let notes ring

e|-------------------------|-----------------------------|
B|-------------------------|-----------------------------|
G|--------0-------------0--|-----------0-------------0---|
D|------2---2---2-----2---2|---------0---0---0-----0---0-|
A|----2-------2-----2------|-------2-------0-----2-------|
E|-0--------------0--------|-0-2-3-------------3---------|

e|---------------------------|-----------------------------|
B|---------------------------|-----------------------------|
G|-----------0------------0--|-----------------------------|
D|---------2---2--2-----2---2|---------------------------2~|
A|-------2-------2----2------|---------------------------2~|
E|-3-2-0------------0--------|-0-2-3---3-3-0-2---2-2h3p2p0~|

Jonny Riff

e|-----------------------------------------------------|
B|-----------------------------------------------------|
G|-----------0---0-------------------0---0-2-4-0-4-2-0-|
D|---2---2-4---4---2-0---0---2---2-4---4---------------|
A|-2---2---------------2---2---2-----------------------|
E|-----------------------------------------------------|

Continued...

e|----------------------------------------------------------|
B|----------------------------------------------------------|
G|-4-4-4-2-0-2-2-2-0--------------------4-2-0---------------|
D|-------------------4-5-5-5-4-2-4-1----------4-2-2-2-2-0-2-|
A|-----------------------------------2----------------------|
E|----------------------------------------------------------|

Then play the first part again.

Any questions or whatever, E-mail me at [email protected]




Ваше мнение



Капча