Damn, this song roX!
The timin' should be rather good, but listen to the track just to be sure!

D A G A
E-------10-------------|----------|------------|-------------|
B----------10----------|----------|--10--------|------10-----|
G--9b11-hold--11r9p7-9-|------7-7-|-----9b11-9-|--9p7--------|
D----------------------|--7h9-----|------------|-------------|
A----------------------|----------|------------|-------------|
E----------------------|----------|------------|-------------|

E--------10-------10-|--------10----12b14-|-r12p10-12-12--|--12-10-17------|
B--10h12----10h12----|--10h12----10-------|---------------|-----------17b19|
G--------------------|--------------------|---------------|----------------|
D--------------------|--------------------|---------------|----------------|
A--------------------|--------------------|---------------|----------------|
E--------------------|--------------------|---------------|----------------|

E-----------------14-15|-16-17----------------|----------17b19-17----|
B--15-17p15-17b19------|-------17b19b17p15----|-17----15----------17b|
G----------------------|-------------------16-|----16----------------|
D----------------------|----------------------|----------------------|
A----------------------|----------------------|----------------------|
E----------------------|----------------------|----------------------|

E--------------------|-------------------|-------17b19-19-19r17-|--------17|
B--19r17p15-17----15-|-17b19r17p15----15-|---15-----hold--------|--17b19---|
G--------------16----|-------------16----|16--------------------|----------|
D--------------------|-------------------|----------------------|----------|
A--------------------|-------------------|----------------------|----------|
E--------------------|-------------------|----------------------|----------|

E--------17--------17-|--------------------|---------------|-10-10---------|
B--17b19-----17b19----|--17-19-17-15----15-|-17p15----15---|-10-10---------|
G---------------------|--------------16----|-------16------|-------12-10-11|
D---------------------|--------------------|---------------|---------------|
A---------------------|--------------------|---------------|---------------|
E---------------------|--------------------|---------------|---------------|

E---------------| On the CD the guitar is tuned down to an Eb, so it
B---------------| sounds a little bit different...
G-------13------|
D-12-12---------|
A---------------|
E---------------|




Ваше мнение



Капча