Intro:
G:--------------------------------------------------------|
D:--2---------------------------------2-------------------|
A:2--------------5-7----------------2-------------5-7-----|
E:|--0--0-3-4----------0-3-0----------0---0-3-4---------0-3-0---------|

Verse: play intro through twice followed by
G:--------------------------------------------------------|
D:--------------------------------------------------------|
A:-----------------------------------3--------------------|
E:|---5-5-5-5-5-5-5-5-5-5--0-3-4-5-5-5-5-5-5-5-5---5-3-0--------------|

play intro once
*end verse*

Chorus:
G:--------------------------------------------------------|
D:--------------------------------------------------------|
A:-----7----5-7-7--------------------7---5-7-7------------|
E:|--0----3--5--------------------0----3---5--------------------------|

that`s basically it! wherever neither the intro/verse/chorus appearing
here are in the song, Duff just pounds on the Eb open or on the 7th fret
of the Ab string. and, the last guitar riff of the song is Day Tripper,
btw. questions, comments, to [email protected]




Ваше мнение



Капча