guns n roses, get in the ring.
Tabbed by chris, [email protected]

Song:GET IN THE RING-COMES FROM USE YOUR ILLUSION II
Artist:GUNS N ROSES
TUNE DOWN HALF A STEP
Tab symbols used:
p-pull off
h-hammer on
/-slide

I have took this tab from the official Guns n Roses tab book so anything wrong
i'm not the one to blame
I just took the intro as i couldn't be arsed doing the rest
E|-------------------------------------------------------|
B|-------------------------------------------------------|
G|-------------------------------------------------------|
D|--------------12--15----15br---------------------------|
A|-13------13--------------------15br---15br---13--------|
E|-------------------------------------------------------|
E|-------------------------------------------------------|
B|-------------------------------------------------------|
G|-------------------------------------------------------|
D|--------------------------------------13----13b---(13)-|
A|-------13-13---15---13------13---15--------------------|
E|-13h15-------------------------------------------------|
E|-------------------------------------------------------|
B|-------------------------------------------------------|
G|--------------17--(17)---------------------------------|
D|-------------------------------------------------------|
A|--15br--13---------------------------------------------|
E|-------------------------------------------------------|
E|-------------------------------------------------------|
B|-------------------------------------------------------|
G|---------------------------------------------17--------|
D|----------------------------15--17--15--17--------17---|
A|---15-----13--13----15/17------------------------------|
E|------15-----------------------------------------------|
E|-------------------------------------------------------|
B|------------15---18---18br-----------------------------|
G|-15-----15-------------------15br---13----15br---------|
D|-------------------------------------------------------|
A|-------------------------------------------------------|
E|-------------------------------------------------------|
E|-------------------------------------------------------|
B|-15-18-15-16----15------15------15------15------15-----|
G|-------------------17b-----17b-----17b-----17b---------|
D|-------------------------------------------------------|
A|-------------------------------------------------------|
E|-------------------------------------------------------|
E|-------------------------------------------------------|
B|-17br(17)p15---15--17------------15---------15--18-----|
G|--------------------------17-----------17--------------|
D|-------------------------------------------------------|
A|-------------------------------------------------------|
E|-------------------------------------------------------|
E|----------18-------------------------------------------|
B|-18b-(18)-----18-r----15---18----18----18-------18-----|
G|---------------------------17b---17b---17-------17-----|
D|-------------------------------------------------------|
A|-------------------------------------------------------|
E|-------------------------------------------------------|




Ваше мнение



Капча