-##
Received: from animal-farm.nevada.edu by redrock.nevada.edu (5.65c/M1.4)
with SMTP id ; Tue, 22 Jun 1993 02:01:05 -0700
Received: from phoenix.oulu.fi by animal-farm.nevada.edu id ; Tue, 22 Jun 1993 02:01:01 -0700
Received: by phoenix.oulu.fi (5.65/DEC-Ultrix/4.3)
id AA15668; Tue, 22 Jun 1993 12:00:57 +0300
Date: Tue, 22 Jun 1993 12:00:57 +0300
From: [email protected] (Mika Salmela)
Message-Id:
To: [email protected]
Subject: Estranged by Guns N Roses
From the book Use Your Illusion II by GnR
ESTRANGED
GUNS N ROSES
Gm7 C Gm7 C
|--|----|------|--------|-----|----|------|--------|--------------------||
|--|----|------|--------|-----|----|------|--------|--------------------||
|--|----|------|--------|-----|----|------|--------|-----12b------------||
|--|----|------|--------|-----|----|------|--------|--------------------||
|--|-10-|-(10)-|-(10)s3-|--3--|-10-|-(10)-|-(10)s3-|-(3)----------------||
|--|----|------|--------|-----|----|------|--------|--------------------||
G5 C5
|------------|-------13b----10-----|----------------13-----|-------------|
|----11--15b-|----11------------13-|-13--13-----13b----13b-|-13---(13)s--|
|-12---------|-12------------------|-----------------------|-------------|
|------------|---------------------|-----------------------|-------------|
|------------|---------------------|-----------------------|-------------|
|------------|---------------------|-----------------------|-------------|
G5 C5
|------------------|-------13b---10-----|-------------13----|
|-----11--15b-(15)-|----11----------13b-|-13-(13)-13b----13-|
|-s12--------------|-12-----------------|-------------------|
|------------------|--------------------|-------------------|
|------------------|--------------------|-------------------|
|------------------|--------------------|-------------------|
Bb5 C5 G5
|------------------------||---------13----|-----------------|------------|
|-13---13b15p11-13p11----||-11--13b----13-|-13------13--12b-|--(12)bbbb--|
|---------------------12-||---------------|-----------------|------------|
|------------------------||---------------|-----------------|------------|
|------------------------||---------------|-----------------|------------|
|------------------------||---------------|-----------------|------------|
Bb5 C5 G5
|---------------------|------------13----|--------------|------|---------|
|(12)-13p12--13b13p12-|-11----13b-----13-|---13--13-----|------|---------|
|---------------------|------------------|----------14b-|-(14)-|-(14)----|
|---------------------|------------------|--------------|------|---------|
|---------------------|------------------|--------------|------|---------|
|---------------------|------------------|--------------|------|---------|
Riff A
Eb5 F5 G5 C5 Eb5 F5
|----|--------------||----------------------|------------------------|
|-11-|-(11)---(11)s-||----------13s15-(15)s-|-------13s15-(15)-13p12-|
|----|--------------||-------12-------------|----12------------------|
|----|--------------||----12----------------|-10---------------------|
|----|--------------||-10-------------------|------------------------|
|----|--------------||----------------------|------------------------|
G5 Eb5 F5 G5
|-----------------------|------------------------|-----------------------|
|-13p12------(15)-(15)s-|-------13s15-(15)-13p12-|-13p12--------15-(15)--|
|-------12--------------|----12------------------|-------12--------------|
|----------12-----------|-10---------------------|----------12-----------|
|-----------------------|------------------------|-----------------------|
|-----------------------|------------------------|-----------------------|
(end Riff A)
Eb5 F5 G5 Eb5 F5 Gm F Eb G
|-------|------|------------||----|------|------|------|---------15--17b-|
|-15s13-|-13b--|-11---11p10-||----|------|------|------|-----------------|
|-------|------|------------||-12-|-(12)-|-(12)-|-(12)-|-(12)------------|
|-------|------|------------||----|------|------|------|-----------------|
|-------|------|------------||----|------|------|------|-----------------|
|-------|------|------------||----|------|------|------|-----------------|
F Eb G5 F5 G5
|-(17)-|---------------------|----------|------------|-------------------|
|------|-s13--11-10---11br10s|8------8--|------------|-------------------|
|------|---------------------|----------|-10b---(10)-|-(10)--------------|
|------|---------------------|----------|------------|-------------------|
|------|---------------------|----------|------------|-------------------|
|------|---------------------|----------|------------|-------------------|
F5 G5
And what more could you ask from me?
F5
How could you say that I never need-
G5 Eb5 D5
-ed you_ when you took everything
F5
said you took everything from me?
w/Riff A
G5 C5 Eb5 F5 G5 C5 Eb5 F5 G5 Eb5 F5
|------------|--------------|--------------|---------------|----|--------|
|------------|--------------|--------------|---------------|----|--------|
|------------|--------------|--------------|---------------|----|--------|
|------------|----1-1-1-1-3-|--5-----------|-----1-1-1-1-3-|-5--|--(5)---|
|-----5--6-5-|-3------------|------5---6-5-|--3------------|----|--------|
|-3----------|--------------|--------------|---------------|----|--------|
G5 Eb5 Gm F Eb Gm F
|-----|-----||-----|------|------|------|-----15--15s17-|-18----18s20-|
|-----|-----||-----|------|------|------|---------------|-------------|
|-----|-----||-12--|-(12)-|-(12)-|-(12)-|-(12)----------|-------------|
|-(5)-|-(5)-||-----|------|------|------|---------------|-------------|
|-----|-----||-----|------|------|------|---------------|-------------|
|-----|-----||-----|------|------|------|---------------|-------------|
Eb Gm Gm7 C
|-(20)---18--17-18--15-|-15--||-(15)-----|-(15)--|-------------|--------||
|----------------------|-----||----------|-------|-------------|--------||
|----------------------|-----||----------|-------|-------------|----12b-||
|----------------------|-----||----------|-------|-------------|--------||
|----------------------|-----||-------10-|-(10)--|-(10)--10-s3-|-(3)----||
|----------------------|-----||----------|-------|-------------|--------||
G5 C5
|-------------|-------13b--10-----|---------------13----|
|----11--15b--|----11---------13b-|-13--(13)-13b-----13-|
|-12----------|-12----------------|---------------------|
|-------------|-------------------|---------------------|
|-------------|-------------------|---------------------|
|-------------|-------------------|---------------------|
Bb5 C5
|-----------13------------------||-----------13----|---------------------|
|-13----13b-----13br(13)p11-----||-11---13b-----13-|-(13)---13---12b-----|
|----------------------------12-||-----------------|---------------------|
|-------------------------------||-----------------|---------------------|
|-------------------------------||-----------------|---------------------|
|-------------------------------||-----------------|---------------------|
G5 Bb5 C5
|----------|-----------------|------------13---|------------13--15-------|
|-(12)-----|-------13p12--12-|-11----13b----13-|--13---13b---------------|
|-------14b|-(14)------------|-----------------|-------------------------|
|----------|-----------------|-----------------|-------------------------|
|----------|-----------------|-----------------|-------------------------|
|----------|-----------------|-----------------|-------------------------|
G5 C5
|-(15)-|-(15)---13p12-|-----|------||
|------|--------------|-13--|--13--||
|------|--------------|-----|------||
|------|--------------|-----|------||
|------|--------------|-----|------||
|------|--------------|-----|------||
(Bass gtr & piano)
|------------------------------------------------------------------------|
|------------------------------------------------------------------------|
|------------------------------------------------------------------------|
|------------------------------------------------------------------------|
|------------------------------------------------------------------------|
|------------------------------------------------------------------------|
C5 Eb5 C5 Eb5
|------------|----------------------|-------------|----------------------|
|------------|----------4---4p3-----|-3-----------|---------4--4p3-4p3---|
|-----5------|--------3---------5p3-|-----5-------|-------3-----------5p3|
|---5--------|----3h5---------------|---5---------|---3h5----------------|
|-3------3-5-|-6--------------------|---------3-5-|-6--------------------|
|------------|----------------------|-------------|----------------------|
C5 Eb5 Bb F C
|------------|---------------------|----|--|-1------------|-0------------|
|-3----------|-----------4--3------|-3--|--|-1------------|-1--------1---|
|-----5------|--------3-------5--3-|----|--|-2---------2--|-0------0-----|
|---5--------|---3--5--------------|----|--|-3-------3----|-2----2-------|
|--------3-5-|-6-------------------|----|--|-3-----3------|-3--3---------|
|------------|---------------------|----|--|-1---1--------|--------------|
G Bb C Bb C Bb F G/F
|-------------|----|-----|-----|--0--|-----|-------------|---------------|
|-3-----------|-3--|--1--|--3--|--1--|--3--|--1----------|-3-------------|
|-0---------0-|-3--|--0--|--3--|--0--|--3--|--2--------2-|-0--------0----|
|-0-------0---|-3--|--2--|--3--|--2--|--3--|--3------3---|-0------0------|
|-2-----2-----|-1--|--3--|--1--|--3--|--1--|--3----3-----|-2----2--------|
|-3---3-------|----|-----|-----|-----|-----|--1--1-------|-3--3----------|
Bb/F F C G Bb/F
|------------|---------------|-------------|--------------|----|
|-3--------3-|-1---------1---|-1---------1-|-3------------|-1--|
|-3------3---|-2-------2---0-|-0-------0---|-0--------0-0-|-3--|
|-3----3-----|-3-----3-------|-2-----2-----|-0------0-----|-3--|
|-1--1-------|-3---3---------|-3---3-------|-2----2-------|-3--|
|------------|-1-------------|-------------|-3--3---------|-1--|
C G F
|-------------------------|-0--|-----------|---------|
|-------------------------|-1--|-----------|---------|
|-------------------------|-0--|-----------|---------|
|-------3-------------3---|-2--|-----------|---------|
|-------------------------|-3--|-----------|---------|
|-1--1----1--1--1--1----1-|----|-----------|---------|
C G
|-------------------------|-0--|-----------|-0--------|------------------|
|-------------------------|-0--|--1--1-----|-1--------|-3----------------|
|-------------------------|-0--|--0-----0--|-0------0-|-0--------0-------|
|-------3-------------3---|-2--|--2--------|-2----2---|-0------0---------|
|-------------------------|-3--|--3--------|-3--3-----|-2----2-----------|
|-1--1----1--1--1--1----1-|----|-----------|----------|-3--3-------------|
F C G F C
|------------|--0--------|-------------|-------------|--0----------------|
|-1--------1-|--1--------|--3----------|--1--------1-|--1--------1-------|
|-2------2---|--0------0-|--0--------0-|--2------2---|--0------0---------|
|-3----3-----|--2----2---|--0------0---|--3----3-----|--2----2-----------|
|-3--3-------|--3--3-----|--2----2-----|--3--3-------|--3--3-------------|
|-1----------|-----------|--3--3-------|--1----------|-------------------|
G F C G F C
|--------|--0-----------|-------------|------------|-0-------------------|
|-3---1--|--1---------1-|--3----------|-1--------1-|-1---------1---------|
|-0---2--|--0-------0---|--0--------0-|-2------2---|-0-------0-----------|
|-0---3--|--2-----2-----|--0------0---|-3----3-----|-2-----2-------------|
|-2---3--|--3---3-------|--2----2-----|-3--3-------|-3---3---------------|
|-3---1--|--------------|--3--3-------|-1----------|---------------------|
G F C G F
|------------|------------|-----------|-------||
|-3----------|-1--------1-|-1-------1-|-3---1-||
|-0--------0-|-2------2---|-0-----0---|-0---2-||
|-0------0---|-3----3-----|-2---2-----|-0---3-||
|-2----2-----|-3--3-------|-3-3-------|-2---3-||
|-3--3-------|-1----------|-0---------|-3---1-||
Guitar solo
C Am
|---------------------------|---------------------------|
|---------------------------|---------------------------|
|-5----------------5h7p5----|-------------------5h7p5---|
|-------------5h7--------(7)|--------------5h7-------(7)|
|---------------------------|---------------------------|
|---------------------------|---------------------------|
C F
|---------------------------|------------------------------|
|-8-------------------------|----------------------------6-|
|-----7b---7--5h7p5s4-5p4---|------------------------5s7---|
|-------------------------5-|--5b-3-5---3--5--3--5s7-------|
|---------------------------|---------5--------------------|
|---------------------------|------------------------------|
C
|-----6---6------8-8-8-----8-----8----|-------------------------------|
|-6s8---8---8s10-------11b---11b---11b|-11----------------------------|
|-------------------------------------|------------------17h19p17-----|
|-------------------------------------|------------17h19---------(19)-|
|-------------------------------------|-------------------------------|
|-------------------------------------|-------------------------------|
F5
|------------------------------------||
|15b-15-p13--15b--15b-15-13--13-15-13||
|----------14---14---------14--------||
|------------------------------------||
|------------------------------------||
|------------------------------------||
Guitar solo II
C5 G5
|------18----------18-----------|----18----------18----------------------|
|-18b-----18----18----18--16----|-18b---18----18----18--16---------------|
|----------------------------17-|--------------------------17------------|
|-------------------------------|----------------------------------------|
|-------------------------------|----------------------------------------|
|-------------------------------|----------------------------------------|
F5 C5 G5 C5
|---------------------------|----------------------|---------------------|
|-15--15--------------------|----------------------|---------------------|
|--------17----15-----------|----------------------|--------15-----------|
|------------------17-15-13-|-----15b-----------13-|(13)--15b-15b-13-15b-|
|---------------------------|-15----------13h15----|---------------------|
|---------------------------|----------15----------|---------------------|
G5
|---------------------------------------15---|
|---------------------15h16p15--15-16-18--18-|
|------15-17-17--15-17--------17-------------|
|-15-17--------17----------------------------|
|--------------------------------------------|
|--------------------------------------------|
F5
|-18--15h18p15--15---------------------|---------------------------------|
|---18--------15---18b--18--16--16-----|---------------------------------|
|-----------------------------17--17p15|-17-17-15--15--------------------|
|--------------------------------------|---------17--17-15-13-15-13----15|
|--------------------------------------|---------------------------15-13-|
|--------------------------------------|---------------------------------|
C5
|------------|-----------------------------|----------------------------||
|------------|-----------------------------|----------------------13----||
|------------|-----------------------------|-------------------12-------||
|-(15)-------|-(15)------------------------|----------------14----------||
|------------|-----------------------------|-------------15-------------||
|------------|-----------------------------|----------------------------||
G F C
|--------------|-------------|---------10s12-----|
|-12--------12-|-10-------10-|-8-----------------|
|-12------12---|-10-----10---|-9-----------------|
|-12----12-----|-10---10-----|-10----------------|
|-10--10-------|-8---8-------|-------------------|
|--------------|-------------|-------------------|
G F C G5
|--10------------|------------|-0------------|-0--||
|----------13s15-|--10--13s15-|-1s13---------|-1--||
|-------12-------|------------|-0------------|-0--||
|-----10---------|------------|-2------------|-2--||
|----------------|------------|-3----0-------|-3--||
|----------------|------------|---------3--0-|----||
A5 G5 F5 G5
I knew the storm was getting clo- er
A5 G5 F5 G5
And all my friends said I was high._________
A5 G5 F5 G5 A5 G5 F5 E
But evrything we've ever known's here. I never wanted it to die
D5 C5 F C
|---|---|-1---|-(1)--|-0-||
|---|---|-1---|-(1)--|-1-||
|---|---|-2---|-(2)--|-0-||
|---|---|-3---|-(3)--|-2-||
|---|---|-3---|-(3)--|-3-||
|---|---|-1---|-(1)--|---||

Subject: guns n' roses tabs
Date: Sun, 26 Oct 1997 17:59:35 -0500
From: "David W. Iggulden"
Estranged
Guns N' Roses
Use Your Illusion II
Tabbed by: Mika Salmela Corrections (in solos): Juan Maria Araujo
[email protected] [email protected]
Gm7 C Gm7 C
|--|----|------|--------|-----|----|------|--------|--------------------||
|--|----|------|--------|-----|----|------|--------|--------------------||
|--|----|------|--------|-----|----|------|--------|-----12b------------||
|--|----|------|--------|-----|----|------|--------|--------------------||
|--|-10-|-(10)-|-(10)s3-|--3--|-10-|-(10)-|-(10)s3-|-(3)----------------||
|--|----|------|--------|-----|----|------|--------|--------------------||
G5 C5
|------------|-------13b----10-----|----------------13-----|-------------|
|----11--15b-|----11------------13-|-13--13-----13b----13b-|-13---(13)s--|
|-12---------|-12------------------|-----------------------|-------------|
|------------|---------------------|-----------------------|-------------|
|------------|---------------------|-----------------------|-------------|
|------------|---------------------|-----------------------|-------------|
G5 C5
|------------------|-------13b---10-----|-------------13----|
|-----11--15b-(15)-|----11----------13b-|-13-(13)-13b----13-|
|-s12--------------|-12-----------------|-------------------|
|------------------|--------------------|-------------------|
|------------------|--------------------|-------------------|
|------------------|--------------------|-------------------|
Bb5 C5 G5
|------------------------||---------13----|-----------------|------------|
|-13---13b15p11-13p11----||-11--13b----13-|-13------13--12b-|--(12)bbbb--|
|---------------------12-||---------------|-----------------|------------|
|------------------------||---------------|-----------------|------------|
|------------------------||---------------|-----------------|------------|
|------------------------||---------------|-----------------|------------|
Bb5 C5 G5
|---------------------|------------13----|--------------|------|---------|
|(12)-13p12--13b13p12-|-11----13b-----13-|---13--13-----|------|---------|
|---------------------|------------------|----------14b-|-(14)-|-(14)----|
|---------------------|------------------|--------------|------|---------|
|---------------------|------------------|--------------|------|---------|
|---------------------|------------------|--------------|------|---------|
Riff A
Eb5 F5 G5 C5 Eb5 F5
|----|--------------||----------------------|------------------------|
|-11-|-(11)---(11)s-||----------13s15-(15)s-|-------13s15-(15)-13p12-|
|----|--------------||-------12-------------|----12------------------|
|----|--------------||----12----------------|-10---------------------|
|----|--------------||-10-------------------|------------------------|
|----|--------------||----------------------|------------------------|
G5 Eb5 F5 G5
|-----------------------|------------------------|-----------------------|
|-13p12------(15)-(15)s-|-------13s15-(15)-13p12-|-13p12--------15-(15)--|
|-------12--------------|----12------------------|-------12--------------|
|----------12-----------|-10---------------------|----------12-----------|
|-----------------------|------------------------|-----------------------|
|-----------------------|------------------------|-----------------------|
(end Riff A)
Eb5 F5 G5 Eb5 F5 Gm F Eb G
|-------|------|------------||----|------|------|------|---------15--17b-|
|-15s13-|-13b--|-11---11p10-||----|------|------|------|-----------------|
|-------|------|------------||-12-|-(12)-|-(12)-|-(12)-|-(12)------------|
|-------|------|------------||----|------|------|------|-----------------|
|-------|------|------------||----|------|------|------|-----------------|
|-------|------|------------||----|------|------|------|-----------------|
F Eb G5 F5 G5
|-(17)-|---------------------|----------|------------|-------------------|
|------|-s13--11-10---11br10s|8------8--|------------|-------------------|
|------|---------------------|----------|-10b---(10)-|-(10)--------------|
|------|---------------------|----------|------------|-------------------|
|------|---------------------|----------|------------|-------------------|
|------|---------------------|----------|------------|-------------------|
F5 G5
And what more could you ask from me?
F5
How could you say that I never need-
G5 Eb5 D5
-ed you_ when you took everything
F5
said you took everything from me?
w/Riff A
G5 C5 Eb5 F5 G5 C5 Eb5 F5 G5 Eb5 F5
|------------|--------------|--------------|---------------|----|--------|
|------------|--------------|--------------|---------------|----|--------|
|------------|--------------|--------------|---------------|----|--------|
|------------|----1-1-1-1-3-|--5-----------|-----1-1-1-1-3-|-5--|--(5)---|
|-----5--6-5-|-3------------|------5---6-5-|--3------------|----|--------|
|-3----------|--------------|--------------|---------------|----|--------|
G5 Eb5 Gm F Eb Gm F
|-----|-----||-----|------|------|------|-----15--15s17-|-18----18s20-|
|-----|-----||-----|------|------|------|---------------|-------------|
|-----|-----||-12--|-(12)-|-(12)-|-(12)-|-(12)----------|-------------|
|-(5)-|-(5)-||-----|------|------|------|---------------|-------------|
|-----|-----||-----|------|------|------|---------------|-------------|
|-----|-----||-----|------|------|------|---------------|-------------|
Eb Gm Gm7 C
|-(20)---18--17-18--15-|-15--||-(15)-----|-(15)--|-------------|--------||
|----------------------|-----||----------|-------|-------------|--------||
|----------------------|-----||----------|-------|-------------|----12b-||
|----------------------|-----||----------|-------|-------------|--------||
|----------------------|-----||-------10-|-(10)--|-(10)--10-s3-|-(3)----||
|----------------------|-----||----------|-------|-------------|--------||
G5 C5
|-------------|-------13b--10-----|---------------13----|
|----11--15b--|----11---------13b-|-13--(13)-13b-----13-|
|-12----------|-12----------------|---------------------|
|-------------|-------------------|---------------------|
|-------------|-------------------|---------------------|
|-------------|-------------------|---------------------|
Bb5 C5
|-----------13------------------||-----------13----|---------------------|
|-13----13b-----13br(13)p11-----||-11---13b-----13-|-(13)---13---12b-----|
|----------------------------12-||-----------------|---------------------|
|-------------------------------||-----------------|---------------------|
|-------------------------------||-----------------|---------------------|
|-------------------------------||-----------------|---------------------|
G5 Bb5 C5
|----------|-----------------|------------13---|------------13--15-------|
|-(12)-----|-------13p12--12-|-11----13b----13-|--13---13b---------------|
|-------14b|-(14)------------|-----------------|-------------------------|
|----------|-----------------|-----------------|-------------------------|
|----------|-----------------|-----------------|-------------------------|
|----------|-----------------|-----------------|-------------------------|
G5 C5
|-(15)-|-(15)---13p12-|-----|------||
|------|--------------|-13--|--13--||
|------|--------------|-----|------||
|------|--------------|-----|------||
|------|--------------|-----|------||
|------|--------------|-----|------||
(Bass gtr & piano)
|------------------------------------------------------------------------|
|------------------------------------------------------------------------|
|------------------------------------------------------------------------|
|------------------------------------------------------------------------|
|------------------------------------------------------------------------|
|------------------------------------------------------------------------|
C5 Eb5 C5 Eb5
|------------|----------------------|-------------|----------------------|
|------------|----------4---4p3-----|-3-----------|---------4--4p3-4p3---|
|-----5------|--------3---------5p3-|-----5-------|-------3-----------5p3|
|---5--------|----3h5---------------|---5---------|---3h5----------------|
|-3------3-5-|-6--------------------|---------3-5-|-6--------------------|
|------------|----------------------|-------------|----------------------|
C5 Eb5 Bb F C
|------------|---------------------|----|--|-1------------|-0------------|
|-3----------|-----------4--3------|-3--|--|-1------------|-1--------1---|
|-----5------|--------3-------5--3-|----|--|-2---------2--|-0------0-----|
|---5--------|---3--5--------------|----|--|-3-------3----|-2----2-------|
|--------3-5-|-6-------------------|----|--|-3-----3------|-3--3---------|
|------------|---------------------|----|--|-1---1--------|--------------|
G Bb C Bb C Bb F G/F
|-------------|----|-----|-----|--0--|-----|-------------|---------------|
|-3-----------|-3--|--1--|--3--|--1--|--3--|--1----------|-3-------------|
|-0---------0-|-3--|--0--|--3--|--0--|--3--|--2--------2-|-0--------0----|
|-0-------0---|-3--|--2--|--3--|--2--|--3--|--3------3---|-0------0------|
|-2-----2-----|-1--|--3--|--1--|--3--|--1--|--3----3-----|-2----2--------|
|-3---3-------|----|-----|-----|-----|-----|--1--1-------|-3--3----------|
Bb/F F C G Bb/F
|------------|---------------|-------------|--------------|----|
|-3--------3-|-1---------1---|-1---------1-|-3------------|-1--|
|-3------3---|-2-------2---0-|-0-------0---|-0--------0-0-|-3--|
|-3----3-----|-3-----3-------|-2-----2-----|-0------0-----|-3--|
|-1--1-------|-3---3---------|-3---3-------|-2----2-------|-3--|
|------------|-1-------------|-------------|-3--3---------|-1--|
C G F
|-------------------------|-0--|-----------|---------|
|-------------------------|-1--|-----------|---------|
|-------------------------|-0--|-----------|---------|
|-------3-------------3---|-2--|-----------|---------|
|-------------------------|-3--|-----------|---------|
|-1--1----1--1--1--1----1-|----|-----------|---------|
C G
|-------------------------|-0--|-----------|-0--------|------------------|
|-------------------------|-0--|--1--1-----|-1--------|-3----------------|
|-------------------------|-0--|--0-----0--|-0------0-|-0--------0-------|
|-------3-------------3---|-2--|--2--------|-2----2---|-0------0---------|
|-------------------------|-3--|--3--------|-3--3-----|-2----2-----------|
|-1--1----1--1--1--1----1-|----|-----------|----------|-3--3-------------|
F C G F C
|------------|--0--------|-------------|-------------|--0----------------|
|-1--------1-|--1--------|--3----------|--1--------1-|--1--------1-------|
|-2------2---|--0------0-|--0--------0-|--2------2---|--0------0---------|
|-3----3-----|--2----2---|--0------0---|--3----3-----|--2----2-----------|
|-3--3-------|--3--3-----|--2----2-----|--3--3-------|--3--3-------------|
|-1----------|-----------|--3--3-------|--1----------|-------------------|
G F C G F C
|--------|--0-----------|-------------|------------|-0-------------------|
|-3---1--|--1---------1-|--3----------|-1--------1-|-1---------1---------|
|-0---2--|--0-------0---|--0--------0-|-2------2---|-0-------0-----------|
|-0---3--|--2-----2-----|--0------0---|-3----3-----|-2-----2-------------|
|-2---3--|--3---3-------|--2----2-----|-3--3-------|-3---3---------------|
|-3---1--|--------------|--3--3-------|-1----------|---------------------|
G F C G F
|------------|------------|-----------|-------||
|-3----------|-1--------1-|-1-------1-|-3---1-||
|-0--------0-|-2------2---|-0-----0---|-0---2-||
|-0------0---|-3----3-----|-2---2-----|-0---3-||
|-2----2-----|-3--3-------|-3-3-------|-2---3-||
|-3--3-------|-1----------|-0---------|-3---1-||
Guitar solo I
C Am
|---------------------------|---------------------------|
|---------------------------|---------------------------|
|-5----------------5h7p5----|--5b---5-----------5h7p5---|
|-------------5h7--------(7)|--------------5h7-------(7)|
|---------------------------|---------------------------|
|---------------------------|---------------------------|
C F
|---------------------------|------------------------------|
|-8-------------------------|----------------------------6-|
|-----7b---7--5h7p5s4-5p4---|------------------------5s7---|
|-------------------------5-|--5b-3-5---3--5--3--5s7-------|
|---------------------------|---------5--------------------|
|---------------------------|------------------------------|
C
|-----6---6------8-8-8-----8-----8----|-------------------------------|
|-6s8---8---8s10-------11b---11b---11b|-11----------------------------|
|-------------------------------------|------------------17h19p17-----|
|-------------------------------------|------------17h19---------(19)-|
|-------------------------------------|-------------------------------|
|-------------------------------------|-------------------------------|
G F
|--------------------------------------|-----------------------------------|
|--------------------------------------|-----20---------------------20p18--|
|--17b-----17----------17h19p17--------|-19b-------17------17--19----------|
|--------------17h19-------------(19)--|-----------------------------------|
|--------------------------------------|-----------------------------------|
|--------------------------------------|-----------------------------------|
|----------------------------------------------|-----------------------------------|
|--18p17---18p17-18p17----17-----17------------|--------------17--18--20--18b------|
|----------------------19----19b----19--17-----|--19b~---19-------------------17b~-|
|------------------------------------------19--|-----------------------------------|
|----------------------------------------------|-----------------------------------|
|----------------------------------------------|-----------------------------------|
Pre-solo
/-w/delay-------F5------------\
|------------------------------------|------------------------------------|
|--13b---13b------------------13b----|15b-15-p13--15b--15b-15-13--13-15-13|
|--------------12b--12b--12b---------|----------14---14---------14--------|
|------------------------------------|------------------------------------|
|------------------------------------|------------------------------------|
|------------------------------------|------------------------------------|
Guitar solo II
C5 G5
|------18----------18-----------|----18----------18----------------------|
|-18b-----18----18----18--16----|-18b---18----18----18--16---------------|
|----------------------------17-|--------------------------17------------|
|-------------------------------|----------------------------------------|
|-------------------------------|----------------------------------------|
|-------------------------------|----------------------------------------|
F5 C5 G5 C5
|---------------------------|----------------------|---------------------|
|-15--15--------------------|----------------------|---------------------|
|--------17----15-----------|----------------------|--------15-----------|
|------------------17-15-13-|-----15b-----------13-|(13)--15b-15b-13-15b-|
|---------------------------|-15----------13h15----|---------------------|
|---------------------------|----------15----------|---------------------|
G5
|---------------------------------------15---|
|---------------------15h16p15--15-16-18--18-|
|------15-17-17--15-17--------17-------------|
|-15-17--------17----------------------------|
|--------------------------------------------|
|--------------------------------------------|
F5
|-18--15h18p15--15---------------------|---------------------------------|
|---18--------15---18b--18--16--16-----|---------------------------------|
|-----------------------------17--17p15|-17-17-15--15--------------------|
|--------------------------------------|---------17--17-15-13-15-13----15|
|--------------------------------------|---------------------------15-13-|
|--------------------------------------|---------------------------------|
C5
|------------|-----------------------------|----------------------------||
|------------|-----------------------------|----------------------13----||
|------------|-----------------------------|-------------------12-------||
|-(15)-------|-(15)------------------------|----------------14----------||
|------------|-----------------------------|-------------15-------------||
|------------|-----------------------------|----------------------------||
G F C
|--------------|-------------|---------10s12-----|
|-12--------12-|-10-------10-|-8-----------------|
|-12------12---|-10-----10---|-9-----------------|
|-12----12-----|-10---10-----|-10----------------|
|-10--10-------|-8---8-------|-------------------|
|--------------|-------------|-------------------|
G F C G5
|--10------------|------------|-0------------|-0--||
|----------13s15-|--10--13s15-|-1s13---------|-1--||
|-------12-------|------------|-0------------|-0--||
|-----10---------|------------|-2------------|-2--||
|----------------|------------|-3----0-------|-3--||
|----------------|------------|---------3--0-|----||
A5 G5 F5 G5
I knew the storm was getting clo- er
A5 G5 F5 G5
And all my friends said I was high._________
A5 G5 F5 G5 A5 G5 F5 E
But evrything we've ever known's here. I never wanted it to die
D5 C5 F C
|---|---|-1---|-(1)--|-0-||
|---|---|-1---|-(1)--|-1-||
|---|---|-2---|-(2)--|-0-||
|---|---|-3---|-(3)--|-2-||
|---|---|-3---|-(3)--|-3-||
|---|---|-1---|-(1)--|---||




Ваше мнение



Капча