Buick Makane (T. Rex Cover)
Artist: Guns N' Roses
Album: The Spaghetti Incident?
Normal Tuning
Rift 1:
|---------------------------------------------|
|---------------------------------------------|
|---------------------------------------------|
|----------------------5-------------5--------|
|--5-7---5-7---5-7-5-7---7---5-7-5-7---7-5----|
|------------------------------------------7-5|
Rift 2:
|-----------------------------------------------------|
|-----------------------------------------------------|
|-----------------------------------------------------|
|----------------------5-------------5----------------|
|--5-7---5-7---5-7-5-7---7---5-7-5-7---7-5---------5-7|
|------------------------------------------7-5---5----|
Play Rift 1 Once Then Play Rift 2 As Many Times As
You Need To.
*If This Doesn't Sound Right When You Play It, Don't
Fear Try Tuning Your Guitar Down Half A Step.
If You Have Any Questions, Additions, Notes Or The Tab Of Other
Parts Of The Song Feel Free To E-Mail Me:
[email protected]
All Will Aim To Repond Within 2 Days!




Ваше мнение



Капча