Breakdown
Guns'n Roses
Bass


G||------------------|--------------------|--0--------------0--|
D||------------------|--0--------------4--|--------------------|
A||------------------|--------------------|--------------------|
E||------------------|--------------------|--------------------|

--0--------------0--|--2--------------2--|--0--------2--------|
--------------------|--------------------|--------------------|
--------------------|--------------------|--------------------|
--------------------|--------------------|--------------------|

-----------0--------|--0--------2--------|-------------------|
--0-----------------|--------------------|--0----------------|
--------------------|--------------------|-------------------|
--------------------|--------------------|-------------------|

-------------------|-------------------|----------------------|
--0----------------|--0----------------|--0-------------------|
-------------------|-------------------|-----------------0-2--|
-------------------|-------------------|---------------2------|

---------------------|---------------------|-------------------|
-----------------0---|---------------------|-------------------|
--3------------3-----|--2------------2-3---|--0----------------|
---------------------|---------------------|-------------------|

----------------------|---------------------|---------------------|
--0-------------------|-----------------0---|---------------------|
-----------------0-2--|--3------------3-----|--2------------2-3---|
---------------2------|---------------------|---------------------|

-------------------|--0------0------------|----------------------|
-------------------|------------4----2----|--0-------------------|
--0----------------|----------------------|-----------------0-2--|
-------------------|----------------------|---------------2------|

---------------------|---------------------|-------------------|
-----------------0---|---------------------|-------------------|
--3------------3-----|--2------------2-3---|--0----------------|
---------------------|---------------------|-------------------|

----------------------|--------------------|--------------------|
--0-------------------|---------------0----|--------------------|
-----------------0-2--|--3-----------------|--2------------3----|
---------------2------|--------------------|--------------------|

-------------------|--0------------------|-------------------|
-------------------|-----------4----2----|--0----------------|
--0----------------|---------------------|-------------------|
-------------------|---------------------|-------------------|

------------------|--0----------------|-------------------|--0----------------|
------------------|-------------------|--0----------------|-------------------|
------------------|-------------------|-------------------|-------------------|
------------------|-------------------|-------------------|-------------------|

-------------------|-------------------|-------------------|-------------------|
--0----------------|--0----------------|--0----------------|-------------------|
-------------------|-------------------|-------------------|--0----------------|
-------------------|-------------------|-------------------|-------------------|

--------------------|--0-----------------|-------------------|
-----------------4--|--------------------|-------------------|
--0-----------------|--------------------|-------------------|
--------------------|-------3------------|--3----------------|

-------------------|-------------------|--0----------------|-------------------|
--0----------------|--0----------------|-------------------|-------------------|
-------------------|-------------------|-------------------|--0----------------|
-------------------|-------------------|-------------------|-------------------|

-------------------|--0----------------|--0----------------|--0----------------|
--4----------------|-------------------|-------------------|-------------------|
-------------------|-------------------|-------------------|-------------------|
-------------------|-------------------|-------------------|-------------------|

--0----------------|--2----------------|--2----------------|--2----------------|
-------------------|-------------------|-------------------|-------------------|
-------------------|-------------------|-------------------|-------------------|
-------------------|-------------------|-------------------|-------------------|

--2----------------|--2----------------|-------------------|-------------------|
-------------------|-------------------|--0----------------|--------------0----|
-------------------|-------------------|-------------------|-------------------|
-------------------|-------------------|-------------------|-------------------|

-------------------|--------------------|--0----------------|------------------|
----------0--------|----------0----0----|-------------------|------------------|
-------------------|--------------------|-------------------|------------------|
-------------------|--------------------|-------------------|------------------|

--0----------------|------------------|--------------------|
-------------------|------------------|--0--------0--------|
-------------------|------------------|--------------------|
-------------------|------------------|--------------------|

--------------------|--------------------|--------------------|
--0--------0--------|--0--------0--------|--0--------0--------|
--------------------|--------------------|--------------------|
--------------------|--------------------|--------------------|

-------------------|-------------------|-------------------|
--0----------------|--0----------------|-------------------|
-------------------|-------------------|--0----------------|
-------------------|-------------------|-------------------|

--------------------|--0-----------------|-------------------|
-----------------4--|--------------------|-------------------|
--0-----------------|--------------------|-------------------|
--------------------|-------3------------|--3----------------|

-------------------|-------------------|--0----------------|-------------------|
--0----------------|--0----------------|-------------------|-------------------|
-------------------|-------------------|-------------------|--0----------------|
-------------------|-------------------|-------------------|-------------------|

-------------------|--0----------------|--0----------------|--0----------------|
--4----------------|-------------------|-------------------|-------------------|
-------------------|-------------------|-------------------|-------------------|
-------------------|-------------------|-------------------|-------------------|

--0----------------|--2----------------|--2----------------|--2----------------|
-------------------|-------------------|-------------------|-------------------|
-------------------|-------------------|-------------------|-------------------|
-------------------|-------------------|-------------------|-------------------|

--2----------------|--2----------------|-------------------|-------------------|
-------------------|-------------------|--0----------------|--------------0----|
-------------------|-------------------|-------------------|-------------------|
-------------------|-------------------|-------------------|-------------------|

-------------------|--------------------|--0----------------|------------------|
----------0--------|----------0----0----|-------------------|------------------|
-------------------|--------------------|-------------------|------------------|
-------------------|--------------------|-------------------|------------------|

--0----------------|------------------|---------------------|
-------------------|------------------|--0-------------0----|
-------------------|------------------|---------0-----------|
-------------------|------------------|---------------------|

---------------------|---------------------|---------------------|
-----------0---------|---------------------|---------------------|
----0-----------0----|---------2-----------|----2-----------0----|
---------------------|--3-------------3----|-----------3---------|

---------------------|---------------------|---------------------|
---------------------|---------------------|--0-------------0----|
---------2-----------|----2-----------0----|---------0-----------|
--3-------------3----|-----------3---------|---------------------|

---------------------|---------------------|---------------------|
-----------0---------|--0-------------0----|-----------0---------|
----0-----------0----|---------0-----------|----0-----------0----|
---------------------|---------------------|---------------------|

---------------------|---------------------|---------------------|
---------------------|---------------------|---------------------|
---------2-----------|----2-----------0----|---------2-----------|
--3-------------3----|-----------3---------|--3-------------3----|

---------------------|--------------------|--------------------|
---------------------|--------------------|--------------------|
----2-----------0----|--------0------0----|----0------0--------|
-----------3---------|--------------------|--------------------|

---------------------|---------------------|--------------------|
---------------------|---------------------|--0--------0--------|
--0------0------0----|----0------0----2----|--------------------|
---------------------|---------------------|--------------------|

--------------------|--------------------|--------------------|
--0--------0--------|--------------------|--------------------|
--------------------|--3--------3--------|--3--------3--------|
--------------------|--------------------|--------------------|

--------------------|--------------------|--------------------|
--------------------|--------------------|--------------------|
--2--------2--------|--2--------2--------|--0--------0--------|
--------------------|--------------------|--------------------|

--------------------|--------------------|--------------------|
--------------------|--0--------0--------|--0--------0--------|
--0--------0--------|--------------------|--------------------|
--------------------|--------------------|--------------------|

--------------------|--------------------|--------------------|
--------------------|--------------------|--------------------|
--3--------3--------|--3--------3--------|--2--------2--------|
--------------------|--------------------|--------------------|

--------------------|--------------------|--------------------|
--------------------|--------------------|--------------------|
--2--------2--------|--0--------0--------|--0--------0--------|
--------------------|--------------------|--------------------|

--0------------------|----------------------|---------------------|
-----------4----2----|--0-------------------|-----------------0---|
---------------------|-----------------0-2--|--3------------3-----|
---------------------|---------------2------|---------------------|

---------------------|-------------------|----------------------|
---------------------|-------------------|--0-------------------|
--2------------2-3---|--0----------------|-----------------0-2--|
---------------------|-------------------|---------------2------|

---------------------|---------------------|-------------------|
-----------------0---|---------------------|-------------------|
--3------------3-----|--2------------2-3---|--0----------------|
---------------------|---------------------|-------------------|

--0------0------------|----------------------|---------------------|
------------4----2----|--0-------------------|-----------------0---|
----------------------|-----------------0-2--|--3------------3-----|
----------------------|---------------2------|---------------------|

---------------------|-------------------|----------------------|
---------------------|-------------------|--0-------------------|
--2------------2-3---|--0----------------|-----------------0-2--|
---------------------|-------------------|---------------2------|

--------------------|--------------------|-------------------|
---------------0----|--------------------|-------------------|
--3-----------------|--2------------3----|--0----------------|
--------------------|--------------------|-------------------|

--0----------------|-------------------|-------------------|--0----------------|
-------------------|-------------------|--4----------------|-------------------|
-------------------|--0----------------|-------------------|-------------------|
-------------------|-------------------|-------------------|-------------------|

--0----------------|--0----------------|--0----------------|--2----------------|
-------------------|-------------------|-------------------|-------------------|
-------------------|-------------------|-------------------|-------------------|
-------------------|-------------------|-------------------|-------------------|

--2----------------|--2----------------|--2----------------|--2----------------|
-------------------|-------------------|-------------------|-------------------|
-------------------|-------------------|-------------------|-------------------|
-------------------|-------------------|-------------------|-------------------|

-------------------|-------------------|-------------------|
--0----------------|--------------0----|----------0--------|
-------------------|-------------------|-------------------|
-------------------|-------------------|-------------------|

--------------------|--0----------------|------------------|--0----------------|
----------0----0----|-------------------|------------------|-------------------|
--------------------|-------------------|------------------|-------------------|
--------------------|-------------------|------------------|-------------------|

------------------|---------------------|---------------------|
------------------|--0-------------0----|-----------0---------|
------------------|---------0-----------|----0-----------0----|
------------------|---------------------|---------------------|

---------------------|---------------------|---------------------|
---------------------|---------------------|---------------------|
---------2-----------|----2-----------0----|---------2-----------|
--3-------------3----|-----------3---------|--3-------------3----|

---------------------|---------------------|---------------------|
---------------------|---------------------|---------------------|
----2-----------0----|--0------0------0----|----0------0----0----|
-----------3---------|---------------------|---------------------|

---------------------|---------------------|---------------------|
--2------2------2----|----2------2----2----|--0-------------0----|
---------------------|---------------------|---------0-----------|
---------------------|---------------------|---------------------|

---------------------|---------------------|---------------------|
-----------0---------|---------------------|---------------------|
----0-----------0----|---------2-----------|----2-----------0----|
---------------------|--3-------------3----|-----------3---------|

---------------------|---------------------|---------------------|
---------------------|---------------------|---------------------|
---------2-----------|----2-----------0----|--0------0------0----|
--3-------------3----|-----------3---------|---------------------|

---------------------|---------------------|---------------------|
---------------------|---------------------|---------------------|
----0------0--0------|--0------0------0----|----0------0--0------|
---------------------|---------------------|---------------------|

----------------------|----------------------|-----------------------|
--0----0----0----0----|--0----0----0----0----|--0----0----0-------0--|
----------------------|----------------------|-----------------4-----|
----------------------|----------------------|-----------------------|

--------------------------|--------------------------|
--0-----0--0-----0--0-----|--0--0-----0--0-----0--0--|
-----4--------4--------4--|--------4--------4--------|
--------------------------|--------------------------|

--------------------------|--------------------------|
--0--0--0-----0--0--0--0--|--0--0--0--0-----0--0--0--|
-----------4--------------|--------------4-----------|
--------------------------|--------------------------|

--------------------------|--------------------------|
--0--0--0-----0--0--0-----|--0--0-----0--0-----0--0--|
-----------4-----------4--|--------4--------4--------|
--------------------------|--------------------------|

--------------------------|--------------------------|
--0-----0--0--0-----0--0--|--------------------------|
-----4-----------4--------|--3--2-----2--0-----0-----|
--------------------------|--------3--------2-----3--|
29x
--------------------------||------------------------||
-----------2--3--3--2--2--||*--0----0----0----0----*||
--------------------------||*----------------------*||
--1--3--1-----------------||------------------------||




Ваше мнение



Капча